  0
SECTION
  2
HEADER
  9
$ACADVER
  1
AC1014
  9
$ACADMAINTVER
 70
     9
  9
$DWGCODEPAGE
  3
ANSI_932
  9
$INSBASE
 10
0.0
 20
0.0
 30
0.0
  9
$EXTMIN
 10
-0.0064049753888185
 20
-0.0045292325963828
 30
-0.0000000000000053
  9
$EXTMAX
 10
398.8308013307636
 20
275.8213247580297
 30
0.0000000000000099
  9
$LIMMIN
 10
0.0
 20
0.0
  9
$LIMMAX
 10
420.0
 20
297.0
  9
$ORTHOMODE
 70
     0
  9
$REGENMODE
 70
     1
  9
$FILLMODE
 70
     1
  9
$QTEXTMODE
 70
     0
  9
$MIRRTEXT
 70
     1
  9
$DRAGMODE
 70
     2
  9
$LTSCALE
 40
2.0
  9
$OSMODE
 70
    35
  9
$ATTMODE
 70
     1
  9
$TEXTSIZE
 40
5.0
  9
$TRACEWID
 40
1.0
  9
$TEXTSTYLE
  7
STANDARD
  9
$CLAYER
  8
SUNPOU
  9
$CELTYPE
  6
BYLAYER
  9
$CECOLOR
 62
   256
  9
$CELTSCALE
 40
1.0
  9
$DELOBJ
 70
     1
  9
$DISPSILH
 70
     0
  9
$DIMSCALE
 40
1.0
  9
$DIMASZ
 40
3.0
  9
$DIMEXO
 40
6.0
  9
$DIMDLI
 40
14.0
  9
$DIMRND
 40
0.0
  9
$DIMDLE
 40
0.0
  9
$DIMEXE
 40
3.0
  9
$DIMTP
 40
0.0
  9
$DIMTM
 40
0.0
  9
$DIMTXT
 40
3.0
  9
$DIMCEN
 40
150.0
  9
$DIMTSZ
 40
0.0
  9
$DIMTOL
 70
     0
  9
$DIMLIM
 70
     0
  9
$DIMTIH
 70
     0
  9
$DIMTOH
 70
     0
  9
$DIMSE1
 70
     0
  9
$DIMSE2
 70
     0
  9
$DIMTAD
 70
     3
  9
$DIMZIN
 70
     0
  9
$DIMBLK
  1

  9
$DIMASO
 70
     1
  9
$DIMSHO
 70
     1
  9
$DIMPOST
  1

  9
$DIMAPOST
  1

  9
$DIMALT
 70
     0
  9
$DIMALTD
 70
     2
  9
$DIMALTF
 40
25.4
  9
$DIMLFAC
 40
1.0
  9
$DIMTOFL
 70
     1
  9
$DIMTVP
 40
0.0
  9
$DIMTIX
 70
     0
  9
$DIMSOXD
 70
     0
  9
$DIMSAH
 70
     1
  9
$DIMBLK1
  1
OPEN
  9
$DIMBLK2
  1
OPEN
  9
$DIMSTYLE
  2
STANDARD
  9
$DIMCLRD
 70
   256
  9
$DIMCLRE
 70
   256
  9
$DIMCLRT
 70
   256
  9
$DIMTFAC
 40
1.0
  9
$DIMGAP
 40
2.0
  9
$DIMJUST
 70
     0
  9
$DIMSD1
 70
     0
  9
$DIMSD2
 70
     0
  9
$DIMTOLJ
 70
     1
  9
$DIMTZIN
 70
     0
  9
$DIMALTZ
 70
     0
  9
$DIMALTTZ
 70
     0
  9
$DIMFIT
 70
     3
  9
$DIMUPT
 70
     0
  9
$DIMUNIT
 70
     2
  9
$DIMDEC
 70
     0
  9
$DIMTDEC
 70
     0
  9
$DIMALTU
 70
     2
  9
$DIMALTTD
 70
     2
  9
$DIMTXSTY
  7
STANDARD
  9
$DIMAUNIT
 70
     0
  9
$LUNITS
 70
     2
  9
$LUPREC
 70
     4
  9
$SKETCHINC
 40
1.0
  9
$FILLETRAD
 40
1.0
  9
$AUNITS
 70
     0
  9
$AUPREC
 70
     0
  9
$MENU
  1
.
  9
$ELEVATION
 40
0.0
  9
$PELEVATION
 40
0.0
  9
$THICKNESS
 40
0.0
  9
$LIMCHECK
 70
     0
  9
$BLIPMODE
 70
     0
  9
$CHAMFERA
 40
0.0
  9
$CHAMFERB
 40
0.0
  9
$CHAMFERC
 40
40.0
  9
$CHAMFERD
 40
0.0
  9
$SKPOLY
 70
     0
  9
$TDCREATE
 40
2451212.627488426
  9
$TDUPDATE
 40
2453481.408537326
  9
$TDINDWG
 40
0.1341839583
  9
$TDUSRTIMER
 40
0.1341837847
  9
$USRTIMER
 70
     1
  9
$ANGBASE
 50
0.0
  9
$ANGDIR
 70
     0
  9
$PDMODE
 70
     0
  9
$PDSIZE
 40
0.0
  9
$PLINEWID
 40
0.0
  9
$COORDS
 70
     1
  9
$SPLFRAME
 70
     0
  9
$SPLINETYPE
 70
     6
  9
$SPLINESEGS
 70
     8
  9
$ATTDIA
 70
     0
  9
$ATTREQ
 70
     1
  9
$HANDLING
 70
 10241
  9
$HANDSEED
  5
3F10
  9
$SURFTAB1
 70
     6
  9
$SURFTAB2
 70
     6
  9
$SURFTYPE
 70
     6
  9
$SURFU
 70
     6
  9
$SURFV
 70
     6
  9
$UCSNAME
  2

  9
$UCSORG
 10
0.0
 20
0.0
 30
0.0
  9
$UCSXDIR
 10
1.0
 20
0.0
 30
0.0
  9
$UCSYDIR
 10
0.0
 20
1.0
 30
0.0
  9
$PUCSNAME
  2

  9
$PUCSORG
 10
0.0
 20
0.0
 30
0.0
  9
$PUCSXDIR
 10
1.0
 20
0.0
 30
0.0
  9
$PUCSYDIR
 10
0.0
 20
1.0
 30
0.0
  9
$USERI1
 70
     0
  9
$USERI2
 70
     0
  9
$USERI3
 70
     0
  9
$USERI4
 70
     0
  9
$USERI5
 70
     0
  9
$USERR1
 40
0.0
  9
$USERR2
 40
0.0
  9
$USERR3
 40
0.0
  9
$USERR4
 40
0.0
  9
$USERR5
 40
0.0
  9
$WORLDVIEW
 70
     1
  9
$SHADEDGE
 70
     3
  9
$SHADEDIF
 70
    70
  9
$TILEMODE
 70
     1
  9
$MAXACTVP
 70
    16
  9
$PINSBASE
 10
0.0
 20
0.0
 30
0.0
  9
$PLIMCHECK
 70
     0
  9
$PEXTMIN
 10
0.0
 20
0.0
 30
0.0
  9
$PEXTMAX
 10
420.0
 20
297.0
 30
0.0
  9
$PLIMMIN
 10
0.0
 20
0.0
  9
$PLIMMAX
 10
420.0
 20
297.0
  9
$UNITMODE
 70
     0
  9
$VISRETAIN
 70
     0
  9
$PLINEGEN
 70
     0
  9
$PSLTSCALE
 70
     1
  9
$TREEDEPTH
 70
  3020
  9
$PICKSTYLE
 70
     1
  9
$CMLSTYLE
  2
STANDARD
  9
$CMLJUST
 70
     0
  9
$CMLSCALE
 40
1.0
  9
$PROXYGRAPHICS
 70
     1
  9
$MEASUREMENT
 70
     1
  0
ENDSEC
  0
SECTION
  2
CLASSES
  0
CLASS
  1
ACDBDICTIONARYWDFLT
  2
AcDbDictionaryWithDefault
  3
AutoCAD 2000
 90
        0
280
     0
281
     0
  0
CLASS
  1
ACDBPLACEHOLDER
  2
AcDbPlaceHolder
  3
AutoCAD 2000
 90
        0
280
     0
281
     0
  0
CLASS
  1
LAYOUT
  2
AcDbLayout
  3
AutoCAD 2000
 90
        0
280
     0
281
     0
  0
CLASS
  1
LONG_TRANSACTION
  2
AcDbLongTransaction
  3
AutoCAD 2000
 90
        0
280
     0
281
     0
  0
CLASS
  1
LWPOLYLINE
  2
AcDbPolyline
  3
AutoCAD 2000
 90
        0
280
     0
281
     1
  0
CLASS
  1
HATCH
  2
AcDbHatch
  3
AutoCAD 2000
 90
        0
280
     0
281
     1
  0
CLASS
  1
XRECORD
  2
AcDbXrecord
  3
AutoCAD 2000
 90
        0
280
     0
281
     0
  0
CLASS
  1
LONG_TRANSACTION
  2
AcDbLongTransaction
  3
AutoCAD 2000
 90
        0
280
     0
281
     0
  0
CLASS
  1
LWPOLYLINE
  2
AcDbPolyline
  3
AutoCAD 2000
 90
        0
280
     0
281
     1
  0
CLASS
  1
HATCH
  2
AcDbHatch
  3
AutoCAD 2000
 90
        0
280
     0
281
     1
  0
CLASS
  1
XRECORD
  2
AcDbXrecord
  3
AutoCAD 2000
 90
        0
280
     0
281
     0
  0
CLASS
  1
LONG_TRANSACTION
  2
AcDbLongTransaction
  3
AutoCAD 2000
 90
        0
280
     0
281
     0
  0
CLASS
  1
LWPOLYLINE
  2
AcDbPolyline
  3
AutoCAD 2000
 90
        0
280
     0
281
     1
  0
CLASS
  1
HATCH
  2
AcDbHatch
  3
AutoCAD 2000
 90
        0
280
     0
281
     1
  0
CLASS
  1
XRECORD
  2
AcDbXrecord
  3
AutoCAD 2000
 90
        0
280
     0
281
     0
  0
CLASS
  1
LONG_TRANSACTION
  2
AcDbLongTransaction
  3
AutoCAD 2000
 90
        0
280
     0
281
     0
  0
CLASS
  1
LWPOLYLINE
  2
AcDbPolyline
  3
AutoCAD 2000
 90
        0
280
     0
281
     1
  0
CLASS
  1
HATCH
  2
AcDbHatch
  3
AutoCAD 2000
 90
        0
280
     0
281
     1
  0
CLASS
  1
XRECORD
  2
AcDbXrecord
  3
AutoCAD 2000
 90
        0
280
     0
281
     0
  0
CLASS
  1
LONG_TRANSACTION
  2
AcDbLongTransaction
  3
AutoCAD 2000
 90
        0
280
     0
281
     0
  0
CLASS
  1
LWPOLYLINE
  2
AcDbPolyline
  3
AutoCAD 2000
 90
        0
280
     0
281
     1
  0
CLASS
  1
HATCH
  2
AcDbHatch
  3
AutoCAD 2000
 90
        0
280
     0
281
     1
  0
CLASS
  1
XRECORD
  2
AcDbXrecord
  3
AutoCAD 2000
 90
        0
280
     0
281
     0
  0
CLASS
  1
LONG_TRANSACTION
  2
AcDbLongTransaction
  3
AutoCAD 2000
 90
        0
280
     0
281
     0
  0
CLASS
  1
LWPOLYLINE
  2
AcDbPolyline
  3
AutoCAD 2000
 90
        0
280
     0
281
     1
  0
CLASS
  1
HATCH
  2
AcDbHatch
  3
AutoCAD 2000
 90
        0
280
     0
281
     1
  0
CLASS
  1
XRECORD
  2
AcDbXrecord
  3
AutoCAD 2000
 90
        0
280
     0
281
     0
  0
CLASS
  1
LONG_TRANSACTION
  2
AcDbLongTransaction
  3
AutoCAD 2000
 90
        0
280
     0
281
     0
  0
CLASS
  1
LWPOLYLINE
  2
AcDbPolyline
  3
AutoCAD 2000
 90
        0
280
     0
281
     1
  0
CLASS
  1
HATCH
  2
AcDbHatch
  3
AutoCAD 2000
 90
        0
280
     0
281
     1
  0
CLASS
  1
XRECORD
  2
AcDbXrecord
  3
AutoCAD 2000
 90
        0
280
     0
281
     0
  0
CLASS
  1
LONG_TRANSACTION
  2
AcDbLongTransaction
  3
AutoCAD 2000
 90
        0
280
     0
281
     0
  0
CLASS
  1
LWPOLYLINE
  2
AcDbPolyline
  3
AutoCAD 2000
 90
        0
280
     0
281
     1
  0
CLASS
  1
HATCH
  2
AcDbHatch
  3
AutoCAD 2000
 90
        0
280
     0
281
     1
  0
CLASS
  1
XRECORD
  2
AcDbXrecord
  3
AutoCAD 2000
 90
        0
280
     0
281
     0
  0
CLASS
  1
LONG_TRANSACTION
  2
AcDbLongTransaction
  3
AutoCAD 2000
 90
        0
280
     0
281
     0
  0
CLASS
  1
LWPOLYLINE
  2
AcDbPolyline
  3
AutoCAD 2000
 90
        0
280
     0
281
     1
  0
CLASS
  1
HATCH
  2
AcDbHatch
  3
AutoCAD 2000
 90
        0
280
     0
281
     1
  0
CLASS
  1
XRECORD
  2
AcDbXrecord
  3
AutoCAD 2000
 90
        0
280
     0
281
     0
  0
CLASS
  1
DICTIONARYVAR
  2
AcDbDictionaryVar
  3
AutoCAD 2000
 90
        0
280
     0
281
     0
  0
CLASS
  1
LONG_TRANSACTION
  2
AcDbLongTransaction
  3
AutoCAD 2000
 90
        0
280
     0
281
     0
  0
CLASS
  1
LWPOLYLINE
  2
AcDbPolyline
  3
AutoCAD 2000
 90
        0
280
     0
281
     1
  0
CLASS
  1
HATCH
  2
AcDbHatch
  3
AutoCAD 2000
 90
        0
280
     0
281
     1
  0
CLASS
  1
XRECORD
  2
AcDbXrecord
  3
AutoCAD 2000
 90
        0
280
     0
281
     0
  0
CLASS
  1
LONG_TRANSACTION
  2
AcDbLongTransaction
  3
AutoCAD 2000
 90
        0
280
     0
281
     0
  0
CLASS
  1
LWPOLYLINE
  2
AcDbPolyline
  3
AutoCAD 2000
 90
        0
280
     0
281
     1
  0
CLASS
  1
HATCH
  2
AcDbHatch
  3
AutoCAD 2000
 90
        0
280
     0
281
     1
  0
CLASS
  1
XRECORD
  2
AcDbXrecord
  3
AutoCAD 2000
 90
        0
280
     0
281
     0
  0
CLASS
  1
LONG_TRANSACTION
  2
AcDbLongTransaction
  3
AutoCAD 2000
 90
        0
280
     0
281
     0
  0
CLASS
  1
LWPOLYLINE
  2
AcDbPolyline
  3
AutoCAD 2000
 90
        0
280
     0
281
     1
  0
CLASS
  1
HATCH
  2
AcDbHatch
  3
AutoCAD 2000
 90
        0
280
     0
281
     1
  0
CLASS
  1
XRECORD
  2
AcDbXrecord
  3
AutoCAD 2000
 90
        0
280
     0
281
     0
  0
CLASS
  1
LONG_TRANSACTION
  2
AcDbLongTransaction
  3
AutoCAD 2000
 90
        0
280
     0
281
     0
  0
CLASS
  1
LWPOLYLINE
  2
AcDbPolyline
  3
AutoCAD 2000
 90
        0
280
     0
281
     1
  0
CLASS
  1
HATCH
  2
AcDbHatch
  3
AutoCAD 2000
 90
        0
280
     0
281
     1
  0
CLASS
  1
XRECORD
  2
AcDbXrecord
  3
AutoCAD 2000
 90
        0
280
     0
281
     0
  0
CLASS
  1
LONG_TRANSACTION
  2
AcDbLongTransaction
  3
AutoCAD 2000
 90
        0
280
     0
281
     0
  0
CLASS
  1
LWPOLYLINE
  2
AcDbPolyline
  3
AutoCAD 2000
 90
        0
280
     0
281
     1
  0
CLASS
  1
HATCH
  2
AcDbHatch
  3
AutoCAD 2000
 90
        0
280
     0
281
     1
  0
CLASS
  1
XRECORD
  2
AcDbXrecord
  3
AutoCAD 2000
 90
        0
280
     0
281
     0
  0
CLASS
  1
LONG_TRANSACTION
  2
AcDbLongTransaction
  3
AutoCAD 2000
 90
        0
280
     0
281
     0
  0
CLASS
  1
LWPOLYLINE
  2
AcDbPolyline
  3
AutoCAD 2000
 90
        0
280
     0
281
     1
  0
CLASS
  1
HATCH
  2
AcDbHatch
  3
AutoCAD 2000
 90
        0
280
     0
281
     1
  0
CLASS
  1
XRECORD
  2
AcDbXrecord
  3
AutoCAD 2000
 90
        0
280
     0
281
     0
  0
CLASS
  1
LONG_TRANSACTION
  2
AcDbLongTransaction
  3
AutoCAD 2000
 90
        0
280
     0
281
     0
  0
CLASS
  1
LWPOLYLINE
  2
AcDbPolyline
  3
AutoCAD 2000
 90
        0
280
     0
281
     1
  0
CLASS
  1
HATCH
  2
AcDbHatch
  3
AutoCAD 2000
 90
        0
280
     0
281
     1
  0
CLASS
  1
XRECORD
  2
AcDbXrecord
  3
AutoCAD 2000
 90
        0
280
     0
281
     0
  0
CLASS
  1
LONG_TRANSACTION
  2
AcDbLongTransaction
  3
AutoCAD 2000
 90
        0
280
     0
281
     0
  0
CLASS
  1
LWPOLYLINE
  2
AcDbPolyline
  3
AutoCAD 2000
 90
        0
280
     0
281
     1
  0
CLASS
  1
HATCH
  2
AcDbHatch
  3
AutoCAD 2000
 90
        0
280
     0
281
     1
  0
CLASS
  1
XRECORD
  2
AcDbXrecord
  3
AutoCAD 2000
 90
        0
280
     0
281
     0
  0
CLASS
  1
LONG_TRANSACTION
  2
AcDbLongTransaction
  3
AutoCAD 2000
 90
        0
280
     0
281
     0
  0
CLASS
  1
LWPOLYLINE
  2
AcDbPolyline
  3
AutoCAD 2000
 90
        0
280
     0
281
     1
  0
CLASS
  1
HATCH
  2
AcDbHatch
  3
AutoCAD 2000
 90
        0
280
     0
281
     1
  0
CLASS
  1
XRECORD
  2
AcDbXrecord
  3
AutoCAD 2000
 90
        0
280
     0
281
     0
  0
ENDSEC
  0
SECTION
  2
TABLES
  0
TABLE
  2
VPORT
  5
8
330
0
100
AcDbSymbolTable
 70
     4
  0
VPORT
  5
3EEC
330
8
100
AcDbSymbolTableRecord
100
AcDbViewportTableRecord
  2
*ACTIVE
 70
     0
 10
0.0
 20
0.0
 11
1.0
 21
1.0
 12
201.1156912887846
 22
134.6210071272897
 13
0.0
 23
0.0
 14
5.0
 24
5.0
 15
0.0
 25
0.0
 16
0.0
 26
0.0
 36
1.0
 17
0.0
 27
0.0
 37
0.0
 40
300.2924023000384
 41
1.752310536044362
 42
50.0
 43
0.0
 44
0.0
 50
0.0
 51
0.0
 71
     0
 72
   100
 73
     1
 74
     0
 75
     0
 76
     0
 77
     0
 78
     0
  0
ENDTAB
  0
TABLE
  2
LTYPE
  5
5
330
0
100
AcDbSymbolTable
 70
     2
  0
LTYPE
  5
14
330
5
100
AcDbSymbolTableRecord
100
AcDbLinetypeTableRecord
  2
BYBLOCK
 70
     0
  3

 72
    65
 73
     0
 40
0.0
  0
LTYPE
  5
15
330
5
100
AcDbSymbolTableRecord
100
AcDbLinetypeTableRecord
  2
BYLAYER
 70
     0
  3

 72
    65
 73
     0
 40
0.0
  0
LTYPE
  5
16
330
5
100
AcDbSymbolTableRecord
100
AcDbLinetypeTableRecord
  2
CONTINUOUS
 70
     0
  3
Solid line
 72
    65
 73
     0
 40
0.0
  0
LTYPE
  5
135
330
5
100
AcDbSymbolTableRecord
100
AcDbLinetypeTableRecord
  2
CENTER
 70
     0
  3
____ _ ____ _ ____ _ ____ _ ____ _ ____ _ ____ 
 72
    65
 73
     4
 40
2.0
 49
1.25
 74
     0
 49
-0.25
 74
     0
 49
0.25
 74
     0
 49
-0.25
 74
     0
  0
ENDTAB
  0
TABLE
  2
LAYER
  5
2
330
0
100
AcDbSymbolTable
 70
     8
  0
LAYER
  5
F
330
2
100
AcDbSymbolTableRecord
100
AcDbLayerTableRecord
  2
0
 70
     0
 62
     7
  6
CONTINUOUS
  0
LAYER
  5
62
330
2
100
AcDbSymbolTableRecord
100
AcDbLayerTableRecord
  2
VIEWPORT
 70
     0
 62
     7
  6
CONTINUOUS
  0
LAYER
  5
65
330
2
100
AcDbSymbolTableRecord
100
AcDbLayerTableRecord
  2
ZUWAKU
 70
     0
 62
     7
  6
CONTINUOUS
  0
LAYER
  5
144
330
2
100
AcDbSymbolTableRecord
100
AcDbLayerTableRecord
  2
SEIHIN
 70
     0
 62
     3
  6
CONTINUOUS
  0
LAYER
  5
145
330
2
100
AcDbSymbolTableRecord
100
AcDbLayerTableRecord
  2
CENTER_L
 70
     0
 62
     1
  6
CENTER
  0
LAYER
  5
3C0
330
2
100
AcDbSymbolTableRecord
100
AcDbLayerTableRecord
  2
SUNPOU
 70
     0
 62
     4
  6
CONTINUOUS
  0
LAYER
  5
3C1
330
2
100
AcDbSymbolTableRecord
100
AcDbLayerTableRecord
  2
DEFPOINTS
 70
     0
 62
     7
  6
CONTINUOUS
  0
LAYER
  5
3D6D
330
2
100
AcDbSymbolTableRecord
100
AcDbLayerTableRecord
  2
MOJI
 70
     0
 62
     2
  6
CONTINUOUS
  0
ENDTAB
  0
TABLE
  2
STYLE
  5
3
330
0
100
AcDbSymbolTable
 70
     2
  0
STYLE
  5
10
330
3
100
AcDbSymbolTableRecord
100
AcDbTextStyleTableRecord
  2
STANDARD
 70
     0
 40
0.0
 41
1.0
 50
0.0
 71
     0
 42
5.0
  3
TXT
  4
bigfont.shx
  0
STYLE
  5
3D6E
330
3
100
AcDbSymbolTableRecord
100
AcDbTextStyleTableRecord
  2
ｽﾀｲﾙ1
 70
     0
 40
0.0
 41
1.0
 50
0.0
 71
     0
 42
2.5
  3
MS PGothic.ttf
  4

1001
ACAD
1000
MS PGothic
1071
    32818
  0
ENDTAB
  0
TABLE
  2
VIEW
  5
6
330
0
100
AcDbSymbolTable
 70
     0
  0
ENDTAB
  0
TABLE
  2
UCS
  5
7
330
0
100
AcDbSymbolTable
 70
     0
  0
ENDTAB
  0
TABLE
  2
APPID
  5
9
330
0
100
AcDbSymbolTable
 70
     1
  0
APPID
  5
11
330
9
100
AcDbSymbolTableRecord
100
AcDbRegAppTableRecord
  2
ACAD
 70
     0
  0
ENDTAB
  0
TABLE
  2
DIMSTYLE
  5
A
330
0
100
AcDbSymbolTable
 70
     1
  0
DIMSTYLE
105
1D
330
A
100
AcDbSymbolTableRecord
100
AcDbDimStyleTableRecord
  2
STANDARD
 70
     0
  3

  4

  5

  6

  7

 40
1.0
 41
0.18
 42
0.0625
 43
0.38
 44
0.18
 45
0.0
 46
0.0
 47
0.0
 48
0.0
140
0.18
141
0.09
142
0.0
143
25.4
144
1.0
145
0.0
146
1.0
147
0.09
 71
     0
 72
     0
 73
     1
 74
     1
 75
     0
 76
     0
 77
     0
 78
     0
170
     0
171
     2
172
     0
173
     0
174
     0
175
     0
176
     0
177
     0
178
     0
270
     2
271
     4
272
     4
273
     2
274
     2
340
10
275
     0
280
     0
281
     0
282
     0
283
     1
284
     0
285
     0
286
     0
287
     3
288
     0
  0
ENDTAB
  0
TABLE
  2
BLOCK_RECORD
  5
1
330
0
100
AcDbSymbolTable
 70
     1
  0
BLOCK_RECORD
  5
1A
102
{ACAD_XDICTIONARY
360
AD2
102
}
330
1
100
AcDbSymbolTableRecord
100
AcDbBlockTableRecord
  2
*MODEL_SPACE
  0
BLOCK_RECORD
  5
17
102
{ACAD_XDICTIONARY
360
AD0
102
}
330
1
100
AcDbSymbolTableRecord
100
AcDbBlockTableRecord
  2
*PAPER_SPACE
  0
BLOCK_RECORD
  5
6D
330
1
100
AcDbSymbolTableRecord
100
AcDbBlockTableRecord
  2
_OPEN
  0
ENDTAB
  0
ENDSEC
  0
SECTION
  2
BLOCKS
  0
BLOCK
  5
1B
330
1A
100
AcDbEntity
  8
0
100
AcDbBlockBegin
  2
*MODEL_SPACE
 70
     0
 10
0.0
 20
0.0
 30
0.0
  3
*MODEL_SPACE
  1

  0
ENDBLK
  5
1C
330
1A
100
AcDbEntity
  8
0
100
AcDbBlockEnd
  0
BLOCK
  5
18
330
17
100
AcDbEntity
 67
     1
  8
0
100
AcDbBlockBegin
  2
*PAPER_SPACE
 70
     0
 10
0.0
 20
0.0
 30
0.0
  3
*PAPER_SPACE
  1

  0
ENDBLK
  5
19
330
17
100
AcDbEntity
 67
     1
  8
0
100
AcDbBlockEnd
  0
BLOCK
  5
6E
330
6D
100
AcDbEntity
  8
0
100
AcDbBlockBegin
  2
_OPEN
 70
     0
 10
0.0
 20
0.0
 30
0.0
  3
_OPEN
  1

  0
LINE
  5
6F
330
6D
100
AcDbEntity
  8
0
  6
BYBLOCK
 62
     0
100
AcDbLine
 10
-1.0
 20
0.1666666666666666
 30
0.0
 11
0.0
 21
0.0
 31
0.0
  0
LINE
  5
70
330
6D
100
AcDbEntity
  8
0
  6
BYBLOCK
 62
     0
100
AcDbLine
 10
0.0
 20
0.0
 30
0.0
 11
-1.0
 21
-0.1666666666666666
 31
0.0
  0
LINE
  5
71
330
6D
100
AcDbEntity
  8
0
  6
BYBLOCK
 62
     0
100
AcDbLine
 10
0.0
 20
0.0
 30
0.0
 11
-1.0
 21
0.0
 31
0.0
  0
ENDBLK
  5
72
330
6D
100
AcDbEntity
  8
0
100
AcDbBlockEnd
  0
ENDSEC
  0
SECTION
  2
ENTITIES
  0
LINE
  5
2612
330
1A
100
AcDbEntity
  8
SUNPOU
100
AcDbLine
 10
219.4204228690393
 20
199.6967990411201
 30
0.0
 11
217.1218887460937
 21
197.768913960091
 31
0.0
  0
LINE
  5
2613
330
1A
100
AcDbEntity
  8
SUNPOU
100
AcDbLine
 10
219.4204228690393
 20
199.6967990411201
 30
0.0
 11
217.6384639919685
 21
197.1530236036604
 31
0.0
  0
LINE
  5
2614
330
1A
100
AcDbEntity
  8
SUNPOU
100
AcDbLine
 10
216.6053135002188
 20
198.3848043165217
 30
0.0
 11
219.4204228690393
 21
199.6967990411201
 31
0.0
  0
LINE
  5
2615
330
1A
100
AcDbEntity
  8
SUNPOU
100
AcDbLine
 10
229.5023534230177
 20
117.0851464160259
 30
0.0
 11
159.2023534230177
 21
117.0851464160259
 31
0.0
  0
LINE
  5
2616
330
1A
100
AcDbEntity
  8
SEIHIN
 48
0.5
100
AcDbLine
 10
202.4027255576191
 20
213.8315771703136
 30
0.0
 11
219.9824902569268
 21
213.8315771703136
 31
0.0
  0
LINE
  5
2617
330
1A
100
AcDbEntity
  8
SEIHIN
 48
0.5
100
AcDbLine
 10
166.7011237575762
 20
217.2826915101432
 30
0.0
 11
223.1043273576619
 21
217.2826915101432
 31
0.0
  0
LINE
  5
2618
330
1A
100
AcDbEntity
  8
SEIHIN
 48
0.5
100
AcDbLine
 10
168.3746850848362
 20
215.2793895231771
 30
0.0
 11
221.4307660304019
 21
215.2793895231771
 31
0.0
  0
LINE
  5
2619
330
1A
100
AcDbEntity
  8
SEIHIN
 48
0.5
100
AcDbLine
 10
217.5301425555886
 20
152.9697406062409
 30
0.0
 11
221.0656764615213
 21
156.5052745121736
 31
0.0
  0
LINE
  5
261A
330
1A
100
AcDbEntity
  8
SEIHIN
 48
0.5
100
AcDbLine
 10
202.4027255576191
 20
144.433805849973
 30
0.0
 11
219.9824902569268
 21
144.433805849973
 31
0.0
  0
LINE
  5
261C
330
1A
100
AcDbEntity
  8
CENTER_L
 48
2.0
100
AcDbLine
 10
149.700827306972
 20
179.1326915101432
 30
0.0
 11
237.6619381063852
 21
179.1326915101432
 31
0.0
  0
LINE
  5
261D
330
1A
100
AcDbEntity
  8
SEIHIN
 48
0.5
100
AcDbLine
 10
166.7011237575762
 20
140.9826915101433
 30
0.0
 11
223.1043273576619
 21
140.9826915101433
 31
0.0
  0
LINE
  5
261E
330
1A
100
AcDbEntity
  8
SEIHIN
 48
0.5
100
AcDbLine
 10
168.3746850848362
 20
142.9859934971093
 30
0.0
 11
221.4307660304019
 21
142.9859934971093
 31
0.0
  0
ARC
  5
261F
330
1A
100
AcDbEntity
  8
SEIHIN
 48
0.5
100
AcDbCircle
 10
194.9027255576191
 20
179.1326915101432
 30
0.0
 40
31.99999999999999
100
AcDbArc
 50
320.3793789911118
 51
129.620621008891
  0
LINE
  5
2620
330
1A
100
AcDbEntity
  8
SEIHIN
 48
0.5
100
AcDbLine
 10
159.3523534230178
 20
61.7435920898356
 30
0.0
 11
229.3523534230178
 21
61.7435920898356
 31
0.0
  0
LINE
  5
2625
330
1A
100
AcDbEntity
  8
CENTER_L
 48
2.0
100
AcDbLine
 10
194.9027255576191
 20
221.8380945926863
 30
0.0
 11
194.9027255576191
 21
136.3581286767821
 31
0.0
  0
ARC
  5
2626
330
1A
100
AcDbEntity
  8
SEIHIN
 48
0.5
100
AcDbCircle
 10
194.9027255576191
 20
179.1326915101432
 30
0.0
 40
32.0
100
AcDbArc
 50
140.3793789911094
 51
309.6206210088908
  0
LINE
  5
262E
330
1A
100
AcDbEntity
  8
CENTER_L
 48
2.0
100
AcDbLine
 10
194.3523534230178
 20
106.8526226345906
 30
0.0
 11
194.3523534230178
 21
55.91039829123501
 31
0.0
  0
LINE
  5
262F
330
1A
100
AcDbEntity
  8
SEIHIN
 48
0.5
100
AcDbLine
 10
166.5017455903983
 20
75.75822583134706
 30
0.0
 11
165.1573996691216
 21
99.14359208983556
 31
0.0
  0
LINE
  5
2630
330
1A
100
AcDbEntity
  8
SEIHIN
 48
0.5
100
AcDbLine
 10
157.5463876598713
 20
75.76364769061644
 30
0.0
 11
156.2023534230178
 21
99.14359208983556
 31
0.0
  0
LWPOLYLINE
  5
2631
330
1A
100
AcDbEntity
  8
SEIHIN
 48
0.5
100
AcDbPolyline
 90
        7
 70
   128
 43
0.0
 10
168.4122303573799
 20
61.74359208983492
 10
168.4122187236453
 20
61.74364980166844
 10
168.2067677431362
 20
62.77552926522634
 10
167.5189660447795
 20
66.54117655055097
 10
166.9708351255305
 20
70.36915357079493
 10
166.601210664764
 20
74.23796602800248
 10
166.5020611964789
 20
75.75274350614432
  0
LWPOLYLINE
  5
2632
330
1A
100
AcDbEntity
  8
SEIHIN
 48
0.5
100
AcDbPolyline
 90
        6
 70
   128
 43
0.0
 10
159.3523534230178
 20
61.74359208983566
 10
159.021590295592
 20
63.46258730366355
 10
158.4029549911554
 20
67.24350312268789
 10
157.9270921146564
 20
71.06924339812223
 10
157.5977586347041
 20
74.93001720566986
 10
157.5466993442946
 20
75.75822583134706
  0
LINE
  5
2636
330
1A
100
AcDbEntity
  8
SEIHIN
 48
0.5
100
AcDbLine
 10
157.5466993442946
 20
75.75822583134706
 30
0.0
 11
157.5463876598713
 21
75.76364769061644
 31
0.0
  0
LINE
  5
2637
330
1A
100
AcDbEntity
  8
SEIHIN
 48
0.5
100
AcDbLine
 10
166.5020611964789
 20
75.75274350614441
 30
0.0
 11
166.5017455903983
 21
75.75822583134706
 31
0.0
  0
LINE
  5
2638
330
1A
100
AcDbEntity
  8
SUNPOU
100
AcDbLine
 10
156.2023534230178
 20
103.1435920898355
 30
0.0
 11
156.2023534230178
 21
118.3351464160259
 31
0.0
  0
LINE
  5
2639
330
1A
100
AcDbEntity
  8
SEIHIN
 48
0.5
100
AcDbLine
 10
232.5023534230178
 20
99.14359208983565
 30
0.0
 11
156.2023534230177
 21
99.14359208983556
 31
0.0
  0
LINE
  5
263C
330
1A
100
AcDbEntity
  8
SUNPOU
100
AcDbLine
 10
156.2023534230178
 20
117.0851464160259
 30
0.0
 11
159.2023534230177
 21
117.0851464160259
 31
0.0
  0
LINE
  5
263D
330
1A
100
AcDbEntity
  8
SUNPOU
100
AcDbLine
 10
156.2023534230178
 20
117.0851464160259
 30
0.0
 11
159.2023534230177
 21
117.8889939860259
 31
0.0
  0
LINE
  5
263E
330
1A
100
AcDbEntity
  8
SUNPOU
100
AcDbLine
 10
159.2023534230177
 20
116.2812988460258
 30
0.0
 11
156.2023534230178
 21
117.0851464160259
 31
0.0
  0
MTEXT
  5
263F
330
1A
100
AcDbEntity
  8
SUNPOU
100
AcDbMText
 10
194.3523534230177
 20
120.5851464160259
 30
0.0
 40
3.0
 41
0.0
 71
     5
 72
     5
  1
\U+25A176
1001
ACAD
1000
MTEXTBEGIN
1070
    73
1070
     1
1070
    44
1040
1.0
1070
    74
1070
     0
1000
MTEXTEND
1000
MTEXTBEGIN
1070
    73
1070
     1
1070
    44
1040
1.0
1070
    74
1070
     0
1000
MTEXTEND
1000
MTEXTBEGIN
1070
    73
1070
     1
1070
    44
1040
1.0
1070
    74
1070
     0
1000
MTEXTEND
1000
MTEXTBEGIN
1070
    73
1070
     1
1070
    44
1040
1.0
1070
    74
1070
     0
1000
MTEXTEND
1000
MTEXTBEGIN
1070
    73
1070
     1
1070
    44
1040
1.0
1070
    74
1070
     0
1000
MTEXTEND
1000
MTEXTBEGIN
1070
    73
1070
     1
1070
    44
1040
1.0
1070
    74
1070
     0
1000
MTEXTEND
1000
MTEXTBEGIN
1070
    73
1070
     1
1070
    44
1040
1.0
1070
    74
1070
     0
1000
MTEXTEND
1000
MTEXTBEGIN
1070
    73
1070
     1
1070
    44
1040
1.0
1070
    74
1070
     0
1000
MTEXTEND
1000
MTEXTBEGIN
1070
    73
1070
     1
1070
    44
1040
1.0
1070
    74
1070
     0
1000
MTEXTEND
1000
MTEXTBEGIN
1070
    73
1070
     1
1070
    44
1040
1.0
1070
    74
1070
     0
1000
MTEXTEND
1000
MTEXTBEGIN
1070
    73
1070
     1
1070
    44
1040
1.0
1070
    74
1070
     0
1000
MTEXTEND
1000
MTEXTBEGIN
1070
    73
1070
     1
1070
    44
1040
1.0
1070
    74
1070
     0
1000
MTEXTEND
  0
LINE
  5
2640
330
1A
100
AcDbEntity
  8
SUNPOU
100
AcDbLine
 10
172.6835623691446
 20
160.4964690601953
 30
0.0
 11
217.1218887460937
 21
197.768913960091
 31
0.0
  0
LINE
  5
2641
330
1A
100
AcDbEntity
  8
SEIHIN
 48
0.5
100
AcDbLine
 10
156.752725557619
 20
207.334293310186
 30
0.0
 11
156.752725557619
 21
150.9310897101004
 31
0.0
  0
LINE
  5
2642
330
1A
100
AcDbEntity
  8
SEIHIN
 48
0.5
100
AcDbLine
 10
158.7560275445851
 20
205.6607319829261
 30
0.0
 11
158.7560275445851
 21
152.6046510373603
 31
0.0
  0
LINE
  5
2643
330
1A
100
AcDbEntity
  8
SEIHIN
 48
0.5
100
AcDbLine
 10
159.5583909813876
 20
186.6326915101432
 30
0.0
 11
159.5583909813876
 21
171.6326915101432
 31
0.0
  0
ARC
  5
2644
330
1A
100
AcDbEntity
  8
SEIHIN
 48
0.5
100
AcDbCircle
 10
194.9027255576191
 20
179.1326915101432
 30
0.0
 40
33.04999999999999
100
AcDbArc
 50
166.8836698654536
 51
193.1163301345462
  0
LINE
  5
2645
330
1A
100
AcDbEntity
  8
SEIHIN
 48
0.5
100
AcDbLine
 10
169.8229608583113
 20
144.433805849973
 30
0.0
 11
187.4027255576191
 21
144.433805849973
 31
0.0
  0
LINE
  5
2646
330
1A
100
AcDbEntity
  8
SUNPOU
100
AcDbLine
 10
170.3850282461989
 20
158.5685839791662
 30
0.0
 11
172.6835623691445
 21
160.4964690601953
 31
0.0
  0
LINE
  5
2647
330
1A
100
AcDbEntity
  8
SUNPOU
100
AcDbLine
 10
170.3850282461989
 20
158.5685839791662
 30
0.0
 11
172.1669871232698
 21
161.112359416626
 31
0.0
  0
LINE
  5
2648
330
1A
100
AcDbEntity
  8
SUNPOU
100
AcDbLine
 10
173.2001376150194
 20
159.8805787037646
 30
0.0
 11
170.3850282461989
 21
158.5685839791662
 31
0.0
  0
LINE
  5
2649
330
1A
100
AcDbEntity
  8
SEIHIN
 48
0.5
100
AcDbLine
 10
160.2038398974488
 20
171.6326915101432
 30
0.0
 11
160.2038398974488
 21
154.052895505251
 31
0.0
  0
ARC
  5
264A
330
1A
100
AcDbEntity
  8
SEIHIN
 48
0.5
100
AcDbCircle
 10
156.752725557619
 20
140.9826915101433
 30
0.0
 40
9.000000000000012
100
AcDbArc
 50
5.729019403878263
 51
84.27098059612156
  0
LWPOLYLINE
  5
264B
330
1A
100
AcDbEntity
  8
SEIHIN
 48
0.5
100
AcDbPolyline
 90
        8
 70
   128
 43
0.0
 10
167.4079750590201
 20
143.7346775306566
 10
167.1229246576793
 20
144.6674428271403
 10
166.412844096226
 20
146.2567594073801
 10
165.4608315234275
 20
147.7140925842123
 10
164.2907261163894
 20
149.0028922351863
 10
162.9318590989615
 20
150.0908405486594
 10
161.4183093413635
 20
150.9506747000664
 10
159.5047115781324
 20
151.6379410115442
  0
LWPOLYLINE
  5
264C
330
1A
100
AcDbEntity
  8
SEIHIN
 48
0.5
100
AcDbPolyline
 90
        8
 70
   128
 43
0.0
 10
168.8579368634139
 20
145.1822607255296
 10
168.2462651443107
 20
146.9306607367017
 10
167.3515532614322
 20
148.5525446893826
 10
166.1953412009272
 20
149.9995678263521
 10
164.8138563183286
 20
151.233342356207
 10
163.244420209391
 20
152.2150598653719
 10
161.5332735510475
 20
152.9213889003166
 10
160.9522967551139
 20
153.0878699583553
  0
LINE
  5
264D
330
1A
100
AcDbEntity
  8
SEIHIN
100
AcDbLine
 10
169.2247045649126
 20
144.6345993690477
 30
0.0
 11
165.9071985994122
 21
141.3753058805248
 31
0.0
  0
LWPOLYLINE
  5
264E
330
1A
100
AcDbEntity
  8
SEIHIN
 48
0.5
100
AcDbPolyline
 90
        9
 70
   128
 43
0.0
 10
165.7077718037229
 20
141.8811049618134
 10
165.742727639532
 20
141.7010929807713
 10
165.8099552267243
 20
141.5305860450228
 10
165.9071985994122
 20
141.3753058805248
 10
166.0311945476435
 20
141.2404632462642
 10
166.1777821214112
 20
141.1305830760634
 10
166.3420422602553
 20
141.0493526347203
 10
166.5184628628881
 20
140.9994977839289
 10
166.7011237575762
 20
140.9826915101433
  0
LWPOLYLINE
  5
264F
330
1A
100
AcDbEntity
  8
SEIHIN
 48
0.5
100
AcDbPolyline
 90
        8
 70
   128
 43
0.0
 10
168.3746850848362
 20
142.9859934971094
 10
168.1876139966689
 20
143.003628736417
 10
168.0072462947488
 20
143.0559134762401
 10
167.8399331485104
 20
143.1410066483722
 10
167.6915660458916
 20
143.2559119228267
 10
167.5673693402395
 20
143.3965832156363
 10
167.4717162885858
 20
143.5580671609511
 10
167.4079750590201
 20
143.7346775306566
  0
LWPOLYLINE
  5
2650
330
1A
100
AcDbEntity
  8
SEIHIN
 48
0.5
100
AcDbPolyline
 90
        6
 70
   128
 43
0.0
 10
169.8229608583113
 20
144.433805849973
 10
169.5211673665992
 20
144.4813207080242
 10
169.2247045649126
 20
144.6345993690477
 10
168.9948292583967
 20
144.877446214308
 10
168.8735603750934
 20
145.1283932580198
 10
168.8579368634139
 20
145.1822607255296
  0
LWPOLYLINE
  5
2651
330
1A
100
AcDbEntity
  8
SEIHIN
 48
0.5
100
AcDbPolyline
 90
        6
 70
   128
 43
0.0
 10
160.9522967551139
 20
153.0878699583553
 10
160.6736977379094
 20
153.2077967420432
 10
160.4237845483022
 20
153.4299850220959
 10
160.2607983349721
 20
153.7230121494796
 10
160.205581984715
 20
153.9966333985904
 10
160.203839897451
 20
154.0528955052511
  0
LINE
  5
2652
330
1A
100
AcDbEntity
  8
SEIHIN
100
AcDbLine
 10
160.4237845483022
 20
153.4299850220959
 30
0.0
 11
157.1453399280007
 21
150.1371645519363
 31
0.0
  0
LWPOLYLINE
  5
2653
330
1A
100
AcDbEntity
  8
SEIHIN
 48
0.5
100
AcDbPolyline
 90
        9
 70
   128
 43
0.0
 10
156.752725557619
 20
150.9310897101004
 10
156.7695318314047
 20
150.7484288154123
 10
156.8193866821962
 20
150.5720082127795
 10
156.9006171235392
 20
150.4077480739354
 10
157.0104972937401
 20
150.2611605001677
 10
157.1453399280007
 20
150.1371645519363
 10
157.3006200924987
 20
150.0399211792484
 10
157.4711270282471
 20
149.9726935920561
 10
157.6511390092893
 20
149.937737756247
  0
LWPOLYLINE
  5
2654
330
1A
100
AcDbEntity
  8
SEIHIN
 48
0.5
100
AcDbPolyline
 90
        8
 70
   128
 43
0.0
 10
159.5047115781324
 20
151.6379410115442
 10
159.3281012084269
 20
151.7016822411099
 10
159.1666172631122
 20
151.7973352927636
 10
159.0259459703025
 20
151.9215319984158
 10
158.911040695848
 20
152.0698991010345
 10
158.8259475237159
 20
152.237212247273
 10
158.7736627838929
 20
152.417579949193
 10
158.7560275445851
 20
152.6046510373603
  0
LINE
  5
2655
330
1A
100
AcDbEntity
  8
SEIHIN
 48
0.5
100
AcDbLine
 10
160.5567427091912
 20
171.6326915101432
 30
0.0
 11
161.6889859307719
 21
171.6326915101432
 31
0.0
  0
LINE
  5
2656
330
1A
100
AcDbEntity
  8
SEIHIN
 48
0.5
100
AcDbLine
 10
160.5567427091912
 20
171.6326915101432
 30
0.0
 11
159.5583909813876
 21
171.6326915101432
 31
0.0
  0
LINE
  5
2657
330
1A
100
AcDbEntity
  8
SEIHIN
 48
0.5
100
AcDbLine
 10
162.7149561412708
 20
171.6326915101432
 30
0.0
 11
161.6889859307719
 21
171.6326915101432
 31
0.0
  0
LINE
  5
2658
330
1A
100
AcDbEntity
  8
SEIHIN
 48
0.5
100
AcDbLine
 10
187.4027255576191
 20
143.7883569339117
 30
0.0
 11
202.4027255576191
 21
143.7883569339117
 31
0.0
  0
ARC
  5
2659
330
1A
100
AcDbEntity
  8
SEIHIN
 48
0.5
100
AcDbCircle
 10
194.9027255576191
 20
179.1326915101432
 30
0.0
 40
33.04999999999999
100
AcDbArc
 50
256.8836698654631
 51
283.1163301345516
  0
LINE
  5
265A
330
1A
100
AcDbEntity
  8
SEIHIN
 48
0.5
100
AcDbLine
 10
187.4027255576191
 20
145.918951883296
 30
0.0
 11
187.4027255576191
 21
146.944922093795
 31
0.0
  0
LINE
  5
265B
330
1A
100
AcDbEntity
  8
SEIHIN
 48
0.5
100
AcDbLine
 10
187.4027255576191
 20
145.918951883296
 30
0.0
 11
187.4027255576191
 21
144.7867086617154
 31
0.0
  0
LINE
  5
265C
330
1A
100
AcDbEntity
  8
SEIHIN
 48
0.5
100
AcDbLine
 10
187.4027255576191
 20
143.7883569339117
 30
0.0
 11
187.4027255576191
 21
144.7867086617154
 31
0.0
  0
LINE
  5
265D
330
1A
100
AcDbEntity
  8
SEIHIN
 48
0.5
100
AcDbLine
 10
202.4027255576191
 20
145.918951883296
 30
0.0
 11
202.4027255576191
 21
146.944922093795
 31
0.0
  0
LINE
  5
265E
330
1A
100
AcDbEntity
  8
SEIHIN
 48
0.5
100
AcDbLine
 10
202.4027255576191
 20
145.918951883296
 30
0.0
 11
202.4027255576191
 21
144.7867086617154
 31
0.0
  0
LINE
  5
265F
330
1A
100
AcDbEntity
  8
SEIHIN
 48
0.5
100
AcDbLine
 10
202.4027255576191
 20
143.7883569339117
 30
0.0
 11
202.4027255576191
 21
144.7867086617154
 31
0.0
  0
LINE
  5
2660
330
1A
100
AcDbEntity
  8
SEIHIN
 48
0.5
100
AcDbLine
 10
215.309165866197
 20
154.4836105144459
 30
0.0
 11
216.823035774402
 21
152.9697406062409
 31
0.0
  0
ARC
  5
2661
330
1A
100
AcDbEntity
  8
SEIHIN
 48
0.5
100
AcDbCircle
 10
217.1765891649952
 20
153.3232939968342
 30
0.0
 40
0.5000000000000201
100
AcDbArc
 50
225.0000000000051
 51
314.9999999999948
  0
LINE
  5
2662
330
1A
100
AcDbEntity
  8
SEIHIN
 48
0.5
100
AcDbLine
 10
169.8229608583113
 20
213.8315771703136
 30
0.0
 11
187.4027255576191
 21
213.8315771703136
 31
0.0
  0
LINE
  5
2663
330
1A
100
AcDbEntity
  8
SEIHIN
100
AcDbLine
 10
160.4237845483022
 20
204.8353979981906
 30
0.0
 11
156.9555572086397
 21
207.9309287332349
 31
0.0
  0
LWPOLYLINE
  5
2664
330
1A
100
AcDbEntity
  8
SEIHIN
 48
0.5
100
AcDbPolyline
 90
        8
 70
   128
 43
0.0
 10
159.5047115781324
 20
206.6274420087423
 10
159.3281012084269
 20
206.5637007791766
 10
159.1666172631122
 20
206.4680477275229
 10
159.0259459703025
 20
206.3438510218707
 10
158.911040695848
 20
206.195483919252
 10
158.8259475237159
 20
206.0281707730136
 10
158.7736627838929
 20
205.8478030710935
 10
158.7560275445851
 20
205.6607319829261
  0
LWPOLYLINE
  5
2665
330
1A
100
AcDbEntity
  8
SEIHIN
 48
0.5
100
AcDbPolyline
 90
        8
 70
   128
 43
0.0
 10
168.8579368634139
 20
213.0831222947569
 10
168.2462651443107
 20
211.3347222835847
 10
167.3515532614322
 20
209.7128383309039
 10
166.1953412009272
 20
208.2658151939345
 10
164.8138563183286
 20
207.0320406640794
 10
163.244420209391
 20
206.0503231549146
 10
161.5332735510475
 20
205.3439941199699
 10
160.9522967551139
 20
205.1775130619314
  0
LINE
  5
2666
330
1A
100
AcDbEntity
  8
SEIHIN
 48
0.5
100
AcDbLine
 10
168.7397746537169
 20
201.0530017269263
 30
0.0
 11
170.2536445619219
 21
199.5391318187212
 31
0.0
  0
LINE
  5
2667
330
1A
100
AcDbEntity
  8
SEIHIN
 48
0.5
100
AcDbLine
 10
172.2753085596496
 20
205.2956424140456
 30
0.0
 11
168.7397746537169
 21
201.7601085081128
 31
0.0
  0
LINE
  5
2668
330
1A
100
AcDbEntity
  8
SEIHIN
 48
0.5
100
AcDbLine
 10
160.2038398974488
 20
204.2124875150355
 30
0.0
 11
160.2038398974488
 21
186.6326915101432
 31
0.0
  0
LINE
  5
2669
330
1A
100
AcDbEntity
  8
SEIHIN
 48
0.5
100
AcDbLine
 10
160.5567427091912
 20
186.6326915101432
 30
0.0
 11
161.6889859307719
 21
186.6326915101432
 31
0.0
  0
LINE
  5
266A
330
1A
100
AcDbEntity
  8
SEIHIN
 48
0.5
100
AcDbLine
 10
160.5567427091912
 20
186.6326915101432
 30
0.0
 11
159.5583909813876
 21
186.6326915101432
 31
0.0
  0
LINE
  5
266B
330
1A
100
AcDbEntity
  8
SEIHIN
 48
0.5
100
AcDbLine
 10
162.7149561412708
 20
186.6326915101432
 30
0.0
 11
161.6889859307719
 21
186.6326915101432
 31
0.0
  0
LWPOLYLINE
  5
266C
330
1A
100
AcDbEntity
  8
SEIHIN
 48
0.5
100
AcDbPolyline
 90
        6
 70
   128
 43
0.0
 10
160.9522967551139
 20
205.1775130619314
 10
160.6736977379094
 20
205.0575862782433
 10
160.4237845483022
 20
204.8353979981906
 10
160.2607983349721
 20
204.5423708708069
 10
160.205581984715
 20
204.268749621696
 10
160.203839897451
 20
204.2124875150354
  0
ARC
  5
266D
330
1A
100
AcDbEntity
  8
SEIHIN
 48
0.5
100
AcDbCircle
 10
169.0933280443101
 20
201.4065551175196
 30
0.0
 40
0.5000000000000041
100
AcDbArc
 50
134.9999999999946
 51
225.0000000000051
  0
LINE
  5
266E
330
1A
100
AcDbEntity
  8
SEIHIN
 48
0.5
100
AcDbLine
 10
174.4962852490411
 20
203.7817725058405
 30
0.0
 11
172.9824153408362
 21
205.2956424140456
 31
0.0
  0
ARC
  5
266F
330
1A
100
AcDbEntity
  8
SEIHIN
 48
0.5
100
AcDbCircle
 10
172.6288619502429
 20
204.9420890234523
 30
0.0
 40
0.5000000000000201
100
AcDbArc
 50
45.00000000000575
 51
134.9999999999952
  0
ARC
  5
2670
330
1A
100
AcDbEntity
  8
SEIHIN
 48
0.5
100
AcDbCircle
 10
156.752725557619
 20
217.2826915101432
 30
0.0
 40
9.000000000000012
100
AcDbArc
 50
275.7290194038783
 51
354.2709805961249
  0
LWPOLYLINE
  5
2671
330
1A
100
AcDbEntity
  8
SEIHIN
 48
0.5
100
AcDbPolyline
 90
        8
 70
   128
 43
0.0
 10
167.4079750590201
 20
214.53070548963
 10
167.1229246576793
 20
213.5979401931461
 10
166.412844096226
 20
212.0086236129064
 10
165.4608315234275
 20
210.5512904360742
 10
164.2907261163894
 20
209.2624907851001
 10
162.9318590989615
 20
208.1745424716271
 10
161.4183093413635
 20
207.31470832022
 10
159.5047115781324
 20
206.6274420087423
  0
LWPOLYLINE
  5
2672
330
1A
100
AcDbEntity
  8
SEIHIN
 48
0.5
100
AcDbPolyline
 90
        9
 70
   128
 43
0.0
 10
156.752725557619
 20
207.334293310186
 10
156.7695318314047
 20
207.5169542048741
 10
156.8193866821962
 20
207.693374807507
 10
156.9006171235392
 20
207.857634946351
 10
157.0104972937401
 20
208.0042225201187
 10
157.1453399280007
 20
208.1282184683502
 10
157.3006200924987
 20
208.2254618410381
 10
157.4711270282471
 20
208.2926894282304
 10
157.6511390092893
 20
208.3276452640395
  0
LWPOLYLINE
  5
2673
330
1A
100
AcDbEntity
  8
SEIHIN
 48
0.5
100
AcDbPolyline
 90
        9
 70
   128
 43
0.0
 10
165.7077718037229
 20
216.384278058473
 10
165.742727639532
 20
216.5642900395151
 10
165.8099552267243
 20
216.7347969752636
 10
165.9071985994122
 20
216.8900771397616
 10
166.0311945476435
 20
217.0249197740223
 10
166.1777821214112
 20
217.1347999442231
 10
166.3420422602553
 20
217.2160303855661
 10
166.5184628628881
 20
217.2658852363576
 10
166.7011237575762
 20
217.2826915101432
  0
LINE
  5
2674
330
1A
100
AcDbEntity
  8
SEIHIN
100
AcDbLine
 10
167.6915660458916
 20
215.0094710974598
 30
0.0
 11
166.0311945476435
 21
217.0249197740223
 31
0.0
  0
LINE
  5
2675
330
1A
100
AcDbEntity
  8
SEIHIN
100
AcDbLine
 10
169.1097669116546
 20
213.5093602286085
 30
0.0
 11
167.6915660458916
 21
215.0094710974598
 31
0.0
  0
LWPOLYLINE
  5
2676
330
1A
100
AcDbEntity
  8
SEIHIN
 48
0.5
100
AcDbPolyline
 90
        8
 70
   128
 43
0.0
 10
168.3746850848362
 20
215.2793895231771
 10
168.1876139966689
 20
215.2617542838694
 10
168.0072462947488
 20
215.2094695440464
 10
167.8399331485104
 20
215.1243763719143
 10
167.6915660458916
 20
215.0094710974598
 10
167.5673693402395
 20
214.8687998046502
 10
167.4717162885858
 20
214.7073158593354
 10
167.4079750590201
 20
214.53070548963
  0
LWPOLYLINE
  5
2677
330
1A
100
AcDbEntity
  8
SEIHIN
 48
0.5
100
AcDbPolyline
 90
        6
 70
   128
 43
0.0
 10
169.8229608583113
 20
213.8315771703136
 10
169.5211673665992
 20
213.7840623122622
 10
169.2247045649126
 20
213.6307836512387
 10
168.9948292583967
 20
213.3879368059784
 10
168.8735603750934
 20
213.1369897622666
 10
168.8579368634139
 20
213.0831222947569
  0
MTEXT
  5
2678
330
1A
100
AcDbEntity
  8
SUNPOU
100
AcDbMText
 10
203.4553128621966
 20
191.7794229437957
 30
0.0
 40
3.0
 41
0.0
 71
     5
 72
     5
  1
\U+220564
 11
0.7661780409818794
 21
0.6426283603430287
 31
0.0
1001
ACAD
1000
MTEXTBEGIN
1070
    73
1070
     1
1070
    44
1040
1.0
1070
    74
1070
     0
1000
MTEXTEND
1000
MTEXTBEGIN
1070
    73
1070
     1
1070
    44
1040
1.0
1070
    74
1070
     0
1000
MTEXTEND
1000
MTEXTBEGIN
1070
    73
1070
     1
1070
    44
1040
1.0
1070
    74
1070
     0
1000
MTEXTEND
1000
MTEXTBEGIN
1070
    73
1070
     1
1070
    44
1040
1.0
1070
    74
1070
     0
1000
MTEXTEND
1000
MTEXTBEGIN
1070
    73
1070
     1
1070
    44
1040
1.0
1070
    74
1070
     0
1000
MTEXTEND
1000
MTEXTBEGIN
1070
    73
1070
     1
1070
    44
1040
1.0
1070
    74
1070
     0
1000
MTEXTEND
1000
MTEXTBEGIN
1070
    73
1070
     1
1070
    44
1040
1.0
1070
    74
1070
     0
1000
MTEXTEND
1000
MTEXTBEGIN
1070
    73
1070
     1
1070
    44
1040
1.0
1070
    74
1070
     0
1000
MTEXTEND
1000
MTEXTBEGIN
1070
    73
1070
     1
1070
    44
1040
1.0
1070
    74
1070
     0
1000
MTEXTEND
1000
MTEXTBEGIN
1070
    73
1070
     1
1070
    44
1040
1.0
1070
    74
1070
     0
1000
MTEXTEND
1000
MTEXTBEGIN
1070
    73
1070
     1
1070
    44
1040
1.0
1070
    74
1070
     0
1000
MTEXTEND
1000
MTEXTBEGIN
1070
    73
1070
     1
1070
    44
1040
1.0
1070
    74
1070
     0
1000
MTEXTEND
  0
LINE
  5
2679
330
1A
100
AcDbEntity
  8
SEIHIN
 48
0.5
100
AcDbLine
 10
187.4027255576191
 20
214.4770260863747
 30
0.0
 11
202.4027255576191
 21
214.4770260863747
 31
0.0
  0
ARC
  5
267A
330
1A
100
AcDbEntity
  8
SEIHIN
 48
0.5
100
AcDbCircle
 10
194.9027255576191
 20
179.1326915101432
 30
0.0
 40
33.04999999999999
100
AcDbArc
 50
76.88366986546404
 51
103.1163301345517
  0
LINE
  5
267B
330
1A
100
AcDbEntity
  8
SEIHIN
 48
0.5
100
AcDbLine
 10
187.4027255576191
 20
212.3464311369904
 30
0.0
 11
187.4027255576191
 21
211.3204609264915
 31
0.0
  0
LINE
  5
267C
330
1A
100
AcDbEntity
  8
SEIHIN
 48
0.5
100
AcDbLine
 10
187.4027255576191
 20
212.3464311369904
 30
0.0
 11
187.4027255576191
 21
213.4786743585711
 31
0.0
  0
LINE
  5
267D
330
1A
100
AcDbEntity
  8
SEIHIN
 48
0.5
100
AcDbLine
 10
187.4027255576191
 20
214.4770260863747
 30
0.0
 11
187.4027255576191
 21
213.4786743585711
 31
0.0
  0
LINE
  5
267E
330
1A
100
AcDbEntity
  8
SEIHIN
 48
0.5
100
AcDbLine
 10
202.4027255576191
 20
212.3464311369904
 30
0.0
 11
202.4027255576191
 21
211.3204609264915
 31
0.0
  0
LINE
  5
267F
330
1A
100
AcDbEntity
  8
SEIHIN
 48
0.5
100
AcDbLine
 10
202.4027255576191
 20
212.3464311369904
 30
0.0
 11
202.4027255576191
 21
213.4786743585711
 31
0.0
  0
LINE
  5
2680
330
1A
100
AcDbEntity
  8
SEIHIN
 48
0.5
100
AcDbLine
 10
202.4027255576191
 20
214.4770260863747
 30
0.0
 11
202.4027255576191
 21
213.4786743585711
 31
0.0
  0
TEXT
  5
2682
330
1A
100
AcDbEntity
  8
SUNPOU
100
AcDbText
 10
345.6125631619559
 20
17.5683163352715
 30
0.0
 40
3.0
  1
※　エルボの差込み寸法を示す
100
AcDbText
  0
LINE
  5
2687
330
1A
100
AcDbEntity
  8
SUNPOU
100
AcDbLine
 10
263.6938625815424
 20
96.14359208983557
 30
0.0
 11
263.6938625815424
 21
64.74359208983493
 31
0.0
  0
LINE
  5
2688
330
1A
100
AcDbEntity
  8
SEIHIN
 48
0.5
100
AcDbLine
 10
231.1583191861643
 20
75.76364769061644
 30
0.0
 11
232.5023534230178
 21
99.14359208983556
 31
0.0
  0
LINE
  5
2689
330
1A
100
AcDbEntity
  8
SEIHIN
 48
0.5
100
AcDbLine
 10
222.2029612556372
 20
75.75822583134706
 30
0.0
 11
223.5473071769139
 21
99.14359208983556
 31
0.0
  0
LINE
  5
268A
330
1A
100
AcDbEntity
  8
SUNPOU
100
AcDbLine
 10
232.4529082784161
 20
61.74359208983492
 30
0.0
 11
254.7831443062727
 21
61.74359208983492
 31
0.0
  0
LINE
  5
268B
330
1A
100
AcDbEntity
  8
SUNPOU
100
AcDbLine
 10
234.8351383296042
 20
71.7435920898356
 30
0.0
 11
254.7831443062727
 21
71.7435920898356
 31
0.0
  0
LINE
  5
268C
330
1A
100
AcDbEntity
  8
SUNPOU
100
AcDbLine
 10
232.4529082784161
 20
61.74359208983492
 30
0.0
 11
264.9438625815424
 21
61.74359208983492
 31
0.0
  0
MTEXT
  5
268D
330
1A
100
AcDbEntity
  8
SUNPOU
100
AcDbMText
 10
250.0967239643284
 20
66.44257891024745
 30
0.0
 40
3.0
 41
0.0
 71
     5
 72
     5
  1
\U+203B10
 11
0.0000000000000001
 21
1.0
 31
0.0
1001
ACAD
1000
MTEXTBEGIN
1070
    73
1070
     1
1070
    44
1040
1.0
1070
    74
1070
     0
1000
MTEXTEND
1000
MTEXTBEGIN
1070
    73
1070
     1
1070
    44
1040
1.0
1070
    74
1070
     0
1000
MTEXTEND
1000
MTEXTBEGIN
1070
    73
1070
     1
1070
    44
1040
1.0
1070
    74
1070
     0
1000
MTEXTEND
1000
MTEXTBEGIN
1070
    73
1070
     1
1070
    44
1040
1.0
1070
    74
1070
     0
1000
MTEXTEND
1000
MTEXTBEGIN
1070
    73
1070
     1
1070
    44
1040
1.0
1070
    74
1070
     0
1000
MTEXTEND
1000
MTEXTBEGIN
1070
    73
1070
     1
1070
    44
1040
1.0
1070
    74
1070
     0
1000
MTEXTEND
1000
MTEXTBEGIN
1070
    73
1070
     1
1070
    44
1040
1.0
1070
    74
1070
     0
1000
MTEXTEND
1000
MTEXTBEGIN
1070
    73
1070
     1
1070
    44
1040
1.0
1070
    74
1070
     0
1000
MTEXTEND
1000
MTEXTBEGIN
1070
    73
1070
     1
1070
    44
1040
1.0
1070
    74
1070
     0
1000
MTEXTEND
1000
MTEXTBEGIN
1070
    73
1070
     1
1070
    44
1040
1.0
1070
    74
1070
     0
1000
MTEXTEND
1000
MTEXTBEGIN
1070
    73
1070
     1
1070
    44
1040
1.0
1070
    74
1070
     0
1000
MTEXTEND
1000
MTEXTBEGIN
1070
    73
1070
     1
1070
    44
1040
1.0
1070
    74
1070
     0
1000
MTEXTEND
  0
LWPOLYLINE
  5
268E
330
1A
100
AcDbEntity
  8
SEIHIN
 48
0.5
100
AcDbPolyline
 90
        7
 70
   128
 43
0.0
 10
220.2924764886557
 20
61.74359208983492
 10
220.2924881223903
 20
61.74364980166844
 10
220.4979391028994
 20
62.77552926522634
 10
221.185740801256
 20
66.54117655055097
 10
221.7338717205052
 20
70.36915357079493
 10
222.1034961812716
 20
74.23796602800248
 10
222.2026456495567
 20
75.75274350614432
  0
LWPOLYLINE
  5
268F
330
1A
100
AcDbEntity
  8
SEIHIN
 48
0.5
100
AcDbPolyline
 90
        6
 70
   128
 43
0.0
 10
229.3523534230178
 20
61.74359208983566
 10
229.6831165504436
 20
63.46258730366355
 10
230.3017518548802
 20
67.24350312268789
 10
230.7776147313792
 20
71.06924339812223
 10
231.1069482113315
 20
74.93001720566986
 10
231.1580075017411
 20
75.75822583134706
  0
LINE
  5
2693
330
1A
100
AcDbEntity
  8
SEIHIN
 48
0.5
100
AcDbLine
 10
222.2026456495567
 20
75.75274350614441
 30
0.0
 11
222.2029612556372
 21
75.75822583134706
 31
0.0
  0
LINE
  5
2694
330
1A
100
AcDbEntity
  8
SEIHIN
 48
0.5
100
AcDbLine
 10
231.1580075017411
 20
75.75822583134706
 30
0.0
 11
231.1583191861643
 21
75.76364769061644
 31
0.0
  0
LINE
  5
2695
330
1A
100
AcDbEntity
  8
SUNPOU
100
AcDbLine
 10
253.5331443062727
 20
68.7435920898356
 30
0.0
 11
253.5331443062727
 21
64.74359208983493
 31
0.0
  0
LINE
  5
2696
330
1A
100
AcDbEntity
  8
SUNPOU
100
AcDbLine
 10
253.5331443062727
 20
61.74359208983492
 30
0.0
 11
253.5331443062727
 21
64.74359208983493
 31
0.0
  0
LINE
  5
2697
330
1A
100
AcDbEntity
  8
SUNPOU
100
AcDbLine
 10
253.5331443062727
 20
61.74359208983492
 30
0.0
 11
252.7292967362727
 21
64.74359208983493
 31
0.0
  0
LINE
  5
2698
330
1A
100
AcDbEntity
  8
SUNPOU
100
AcDbLine
 10
254.3369918762727
 20
64.74359208983493
 30
0.0
 11
253.5331443062727
 21
61.74359208983492
 31
0.0
  0
LINE
  5
2699
330
1A
100
AcDbEntity
  8
SUNPOU
100
AcDbLine
 10
264.4977101515424
 20
64.74359208983493
 30
0.0
 11
263.6938625815424
 21
61.74359208983492
 31
0.0
  0
LINE
  5
269A
330
1A
100
AcDbEntity
  8
SUNPOU
100
AcDbLine
 10
263.6938625815424
 20
61.74359208983492
 30
0.0
 11
263.6938625815424
 21
64.74359208983493
 31
0.0
  0
LINE
  5
269B
330
1A
100
AcDbEntity
  8
SUNPOU
100
AcDbLine
 10
263.6938625815424
 20
61.74359208983492
 30
0.0
 11
262.8900150115425
 21
64.74359208983493
 31
0.0
  0
MTEXT
  5
269C
330
1A
100
AcDbEntity
  8
SUNPOU
100
AcDbMText
 10
260.1938625815424
 20
80.4435920898353
 30
0.0
 40
3.0
 41
0.0
 71
     5
 72
     5
  1
37
 11
0.0000000000000001
 21
1.0
 31
0.0
1001
ACAD
1000
MTEXTBEGIN
1070
    73
1070
     1
1070
    44
1040
1.0
1070
    74
1070
     0
1000
MTEXTEND
1000
MTEXTBEGIN
1070
    73
1070
     1
1070
    44
1040
1.0
1070
    74
1070
     0
1000
MTEXTEND
1000
MTEXTBEGIN
1070
    73
1070
     1
1070
    44
1040
1.0
1070
    74
1070
     0
1000
MTEXTEND
1000
MTEXTBEGIN
1070
    73
1070
     1
1070
    44
1040
1.0
1070
    74
1070
     0
1000
MTEXTEND
1000
MTEXTBEGIN
1070
    73
1070
     1
1070
    44
1040
1.0
1070
    74
1070
     0
1000
MTEXTEND
1000
MTEXTBEGIN
1070
    73
1070
     1
1070
    44
1040
1.0
1070
    74
1070
     0
1000
MTEXTEND
1000
MTEXTBEGIN
1070
    73
1070
     1
1070
    44
1040
1.0
1070
    74
1070
     0
1000
MTEXTEND
1000
MTEXTBEGIN
1070
    73
1070
     1
1070
    44
1040
1.0
1070
    74
1070
     0
1000
MTEXTEND
1000
MTEXTBEGIN
1070
    73
1070
     1
1070
    44
1040
1.0
1070
    74
1070
     0
1000
MTEXTEND
1000
MTEXTBEGIN
1070
    73
1070
     1
1070
    44
1040
1.0
1070
    74
1070
     0
1000
MTEXTEND
1000
MTEXTBEGIN
1070
    73
1070
     1
1070
    44
1040
1.0
1070
    74
1070
     0
1000
MTEXTEND
1000
MTEXTBEGIN
1070
    73
1070
     1
1070
    44
1040
1.0
1070
    74
1070
     0
1000
MTEXTEND
  0
LINE
  5
269D
330
1A
100
AcDbEntity
  8
SUNPOU
100
AcDbLine
 10
253.5331443062727
 20
71.7435920898356
 30
0.0
 11
253.5331443062727
 21
68.7435920898356
 31
0.0
  0
LINE
  5
269E
330
1A
100
AcDbEntity
  8
SUNPOU
100
AcDbLine
 10
253.5331443062727
 20
71.7435920898356
 30
0.0
 11
254.3369918762727
 21
68.7435920898356
 31
0.0
  0
LINE
  5
269F
330
1A
100
AcDbEntity
  8
SUNPOU
100
AcDbLine
 10
252.7292967362727
 20
68.7435920898356
 30
0.0
 11
253.5331443062727
 21
71.7435920898356
 31
0.0
  0
LINE
  5
26A0
330
1A
100
AcDbEntity
  8
SUNPOU
100
AcDbLine
 10
236.5023534230178
 20
99.14359208983556
 30
0.0
 11
264.9438625815424
 21
99.14359208983556
 31
0.0
  0
LINE
  5
26A1
330
1A
100
AcDbEntity
  8
SUNPOU
100
AcDbLine
 10
232.5023534230177
 20
103.1435920898355
 30
0.0
 11
232.5023534230177
 21
118.3351464160259
 31
0.0
  0
LINE
  5
26A5
330
1A
100
AcDbEntity
  8
SUNPOU
100
AcDbLine
 10
232.5023534230177
 20
117.0851464160259
 30
0.0
 11
229.5023534230177
 21
117.0851464160259
 31
0.0
  0
LINE
  5
26A6
330
1A
100
AcDbEntity
  8
SUNPOU
100
AcDbLine
 10
232.5023534230177
 20
117.0851464160259
 30
0.0
 11
229.5023534230177
 21
116.2812988460258
 31
0.0
  0
LINE
  5
26A7
330
1A
100
AcDbEntity
  8
SUNPOU
100
AcDbLine
 10
229.5023534230177
 20
117.8889939860259
 30
0.0
 11
232.5023534230177
 21
117.0851464160259
 31
0.0
  0
LINE
  5
26A8
330
1A
100
AcDbEntity
  8
SUNPOU
100
AcDbLine
 10
263.6938625815424
 20
99.14359208983556
 30
0.0
 11
264.4977101515424
 21
96.14359208983557
 31
0.0
  0
LINE
  5
26A9
330
1A
100
AcDbEntity
  8
SUNPOU
100
AcDbLine
 10
263.6938625815424
 20
99.14359208983556
 30
0.0
 11
263.6938625815424
 21
96.14359208983557
 31
0.0
  0
LINE
  5
26AA
330
1A
100
AcDbEntity
  8
SUNPOU
100
AcDbLine
 10
262.8900150115425
 20
96.14359208983557
 30
0.0
 11
263.6938625815424
 21
99.14359208983556
 31
0.0
  0
LINE
  5
26B1
330
1A
100
AcDbEntity
  8
SEIHIN
 48
0.5
100
AcDbLine
 10
233.0527255576191
 20
207.334293310186
 30
0.0
 11
233.0527255576191
 21
150.9310897101004
 31
0.0
  0
LINE
  5
26B2
330
1A
100
AcDbEntity
  8
SEIHIN
 48
0.5
100
AcDbLine
 10
231.049423570653
 20
205.6607319829261
 30
0.0
 11
231.049423570653
 21
152.6046510373603
 31
0.0
  0
LINE
  5
26B3
330
1A
100
AcDbEntity
  8
SEIHIN
 48
0.5
100
AcDbLine
 10
230.2470601338505
 20
186.6326915101432
 30
0.0
 11
230.2470601338505
 21
171.6326915101432
 31
0.0
  0
ARC
  5
26B4
330
1A
100
AcDbEntity
  8
SEIHIN
 48
0.5
100
AcDbCircle
 10
194.9027255576191
 20
179.1326915101432
 30
0.0
 40
33.04999999999999
100
AcDbArc
 50
346.883669865454
 51
13.1163301345462
  0
LINE
  5
26B5
330
1A
100
AcDbEntity
  8
SEIHIN
 48
0.5
100
AcDbLine
 10
229.6016112177893
 20
171.6326915101432
 30
0.0
 11
229.6016112177893
 21
154.052895505251
 31
0.0
  0
LWPOLYLINE
  5
26B6
330
1A
100
AcDbEntity
  8
SEIHIN
 48
0.5
100
AcDbPolyline
 90
        8
 70
   128
 43
0.0
 10
222.397476056218
 20
143.7346775306566
 10
222.6825264575588
 20
144.6674428271403
 10
223.3926070190121
 20
146.2567594073801
 10
224.3446195918106
 20
147.7140925842123
 10
225.5147249988487
 20
149.0028922351863
 10
226.8735920162767
 20
150.0908405486594
 10
228.3871417738744
 20
150.9506747000664
 10
230.3007395371058
 20
151.6379410115442
  0
ARC
  5
26B7
330
1A
100
AcDbEntity
  8
SEIHIN
 48
0.5
100
AcDbCircle
 10
233.0527255576191
 20
140.9826915101433
 30
0.0
 40
9.000000000000012
100
AcDbArc
 50
95.72901940387842
 51
174.2709805961216
  0
LWPOLYLINE
  5
26B8
330
1A
100
AcDbEntity
  8
SEIHIN
 48
0.5
100
AcDbPolyline
 90
        8
 70
   128
 43
0.0
 10
220.9475142518243
 20
145.1822607255296
 10
221.5591859709274
 20
146.9306607367017
 10
222.4538978538059
 20
148.5525446893826
 10
223.610109914311
 20
149.9995678263521
 10
224.9915947969095
 20
151.233342356207
 10
226.5610309058472
 20
152.2150598653719
 10
228.2721775641906
 20
152.9213889003166
 10
228.8531543601244
 20
153.0878699583553
  0
LINE
  5
26B9
330
1A
100
AcDbEntity
  8
SEIHIN
100
AcDbLine
 10
220.4325151494823
 20
144.557960038536
 30
0.0
 11
223.7742565675946
 21
141.2404632462642
 31
0.0
  0
LWPOLYLINE
  5
26BA
330
1A
100
AcDbEntity
  8
SEIHIN
 48
0.5
100
AcDbPolyline
 90
        9
 70
   128
 43
0.0
 10
224.0976793115152
 20
141.8811049618134
 10
224.0627234757061
 20
141.7010929807713
 10
223.9954958885139
 20
141.5305860450228
 10
223.8982525158259
 20
141.3753058805248
 10
223.7742565675946
 20
141.2404632462642
 10
223.6276689938269
 20
141.1305830760634
 10
223.4634088549829
 20
141.0493526347203
 10
223.28698825235
 20
140.9994977839289
 10
223.1043273576619
 20
140.9826915101433
  0
LWPOLYLINE
  5
26BB
330
1A
100
AcDbEntity
  8
SEIHIN
 48
0.5
100
AcDbPolyline
 90
        8
 70
   128
 43
0.0
 10
221.4307660304019
 20
142.9859934971094
 10
221.6178371185693
 20
143.003628736417
 10
221.7982048204892
 20
143.0559134762401
 10
221.9655179667278
 20
143.1410066483722
 10
222.1138850693466
 20
143.2559119228267
 10
222.2380817749987
 20
143.3965832156363
 10
222.3337348266523
 20
143.5580671609511
 10
222.397476056218
 20
143.7346775306566
  0
LWPOLYLINE
  5
26BC
330
1A
100
AcDbEntity
  8
SEIHIN
 48
0.5
100
AcDbPolyline
 90
        6
 70
   128
 43
0.0
 10
219.9824902569268
 20
144.433805849973
 10
220.284283748639
 20
144.4813207080242
 10
220.5807465503255
 20
144.6345993690477
 10
220.8106218568415
 20
144.877446214308
 10
220.9318907401448
 20
145.1283932580198
 10
220.9475142518243
 20
145.1822607255296
  0
ARC
  5
26BD
330
1A
100
AcDbEntity
  8
SEIHIN
 48
0.5
100
AcDbCircle
 10
220.712123070928
 20
156.8588279027669
 30
0.0
 40
0.499999999999972
100
AcDbArc
 50
314.9999999999959
 51
45.0000000000046
  0
LINE
  5
26BE
330
1A
100
AcDbEntity
  8
SEIHIN
 48
0.5
100
AcDbLine
 10
221.0656764615213
 20
157.2123812933601
 30
0.0
 11
219.5518065533163
 21
158.7262512015652
 31
0.0
  0
LWPOLYLINE
  5
26BF
330
1A
100
AcDbEntity
  8
SEIHIN
 48
0.5
100
AcDbPolyline
 90
        6
 70
   128
 43
0.0
 10
228.8531543601243
 20
153.0878699583553
 10
229.1317533773287
 20
153.2077967420432
 10
229.3816665669361
 20
153.4299850220959
 10
229.544652780266
 20
153.7230121494796
 10
229.5998691305231
 20
153.9966333985904
 10
229.6016112177871
 20
154.0528955052511
  0
LINE
  5
26C0
330
1A
100
AcDbEntity
  8
SEIHIN
100
AcDbLine
 10
229.3816665669361
 20
153.4299850220959
 30
0.0
 11
232.9048339916989
 21
150.4077480739354
 31
0.0
  0
LWPOLYLINE
  5
26C1
330
1A
100
AcDbEntity
  8
SEIHIN
 48
0.5
100
AcDbPolyline
 90
        8
 70
   128
 43
0.0
 10
230.3007395371058
 20
151.6379410115442
 10
230.4773499068113
 20
151.7016822411099
 10
230.6388338521259
 20
151.7973352927636
 10
230.7795051449355
 20
151.9215319984158
 10
230.8944104193901
 20
152.0698991010345
 10
230.9795035915222
 20
152.237212247273
 10
231.0317883313452
 20
152.417579949193
 10
231.049423570653
 20
152.6046510373603
  0
LWPOLYLINE
  5
26C2
330
1A
100
AcDbEntity
  8
SEIHIN
 48
0.5
100
AcDbPolyline
 90
        9
 70
   128
 43
0.0
 10
233.052725557619
 20
150.9310897101004
 10
233.0359192838335
 20
150.7484288154123
 10
232.986064433042
 20
150.5720082127795
 10
232.9048339916989
 20
150.4077480739354
 10
232.794953821498
 20
150.2611605001677
 10
232.6601111872374
 20
150.1371645519363
 10
232.5048310227394
 20
150.0399211792484
 10
232.334324086991
 20
149.9726935920561
 10
232.1543121059488
 20
149.937737756247
  0
LINE
  5
26C3
330
1A
100
AcDbEntity
  8
SEIHIN
 48
0.5
100
AcDbLine
 10
227.0904949739673
 20
171.6326915101432
 30
0.0
 11
228.1164651844663
 21
171.6326915101432
 31
0.0
  0
LINE
  5
26C4
330
1A
100
AcDbEntity
  8
SEIHIN
 48
0.5
100
AcDbLine
 10
229.248708406047
 20
171.6326915101432
 30
0.0
 11
230.2470601338505
 21
171.6326915101432
 31
0.0
  0
LINE
  5
26C5
330
1A
100
AcDbEntity
  8
SEIHIN
 48
0.5
100
AcDbLine
 10
229.248708406047
 20
171.6326915101432
 30
0.0
 11
228.1164651844663
 21
171.6326915101432
 31
0.0
  0
LINE
  5
26C6
330
1A
100
AcDbEntity
  8
SEIHIN
100
AcDbLine
 10
229.3816665669361
 20
204.8353979981906
 30
0.0
 11
232.7275325043677
 21
208.0662204942345
 31
0.0
  0
LWPOLYLINE
  5
26C7
330
1A
100
AcDbEntity
  8
SEIHIN
 48
0.5
100
AcDbPolyline
 90
        8
 70
   128
 43
0.0
 10
230.3007395371058
 20
206.6274420087423
 10
230.4773499068113
 20
206.5637007791766
 10
230.6388338521259
 20
206.4680477275229
 10
230.7795051449355
 20
206.3438510218707
 10
230.8944104193901
 20
206.195483919252
 10
230.9795035915222
 20
206.0281707730136
 10
231.0317883313452
 20
205.8478030710935
 10
231.049423570653
 20
205.6607319829261
  0
LWPOLYLINE
  5
26C8
330
1A
100
AcDbEntity
  8
SEIHIN
 48
0.5
100
AcDbPolyline
 90
        8
 70
   128
 43
0.0
 10
220.9475142518243
 20
213.0831222947569
 10
221.5591859709274
 20
211.3347222835847
 10
222.4538978538059
 20
209.7128383309039
 10
223.610109914311
 20
208.2658151939345
 10
224.9915947969095
 20
207.0320406640794
 10
226.5610309058472
 20
206.0503231549146
 10
228.2721775641906
 20
205.3439941199699
 10
228.8531543601244
 20
205.1775130619314
  0
LINE
  5
26C9
330
1A
100
AcDbEntity
  8
SEIHIN
 48
0.5
100
AcDbLine
 10
229.6016112177893
 20
204.2124875150355
 30
0.0
 11
229.6016112177893
 21
186.6326915101432
 31
0.0
  0
LINE
  5
26CA
330
1A
100
AcDbEntity
  8
SEIHIN
 48
0.5
100
AcDbLine
 10
227.0904949739673
 20
186.6326915101432
 30
0.0
 11
228.1164651844663
 21
186.6326915101432
 31
0.0
  0
LINE
  5
26CB
330
1A
100
AcDbEntity
  8
SEIHIN
 48
0.5
100
AcDbLine
 10
229.248708406047
 20
186.6326915101432
 30
0.0
 11
230.2470601338505
 21
186.6326915101432
 31
0.0
  0
LINE
  5
26CC
330
1A
100
AcDbEntity
  8
SEIHIN
 48
0.5
100
AcDbLine
 10
229.248708406047
 20
186.6326915101432
 30
0.0
 11
228.1164651844663
 21
186.6326915101432
 31
0.0
  0
LWPOLYLINE
  5
26CD
330
1A
100
AcDbEntity
  8
SEIHIN
 48
0.5
100
AcDbPolyline
 90
        6
 70
   128
 43
0.0
 10
228.8531543601243
 20
205.1775130619314
 10
229.1317533773287
 20
205.0575862782433
 10
229.3816665669361
 20
204.8353979981906
 10
229.544652780266
 20
204.5423708708069
 10
229.5998691305231
 20
204.268749621696
 10
229.6016112177871
 20
204.2124875150354
  0
ARC
  5
26CE
330
1A
100
AcDbEntity
  8
SEIHIN
 48
0.5
100
AcDbCircle
 10
233.0527255576191
 20
217.2826915101432
 30
0.0
 40
9.000000000000012
100
AcDbArc
 50
185.7290194038782
 51
264.2709805961215
  0
LWPOLYLINE
  5
26CF
330
1A
100
AcDbEntity
  8
SEIHIN
 48
0.5
100
AcDbPolyline
 90
        8
 70
   128
 43
0.0
 10
222.397476056218
 20
214.53070548963
 10
222.6825264575588
 20
213.5979401931461
 10
223.3926070190121
 20
212.0086236129064
 10
224.3446195918106
 20
210.5512904360742
 10
225.5147249988487
 20
209.2624907851001
 10
226.8735920162767
 20
208.1745424716271
 10
228.3871417738744
 20
207.31470832022
 10
230.3007395371058
 20
206.6274420087423
  0
LINE
  5
26D0
330
1A
100
AcDbEntity
  8
SEIHIN
100
AcDbLine
 10
220.5807465503255
 20
213.6307836512387
 30
0.0
 11
223.7742565675946
 21
217.0249197740223
 31
0.0
  0
LWPOLYLINE
  5
26D1
330
1A
100
AcDbEntity
  8
SEIHIN
 48
0.5
100
AcDbPolyline
 90
        9
 70
   128
 43
0.0
 10
224.0976793115152
 20
216.384278058473
 10
224.0627234757061
 20
216.5642900395151
 10
223.9954958885139
 20
216.7347969752636
 10
223.8982525158259
 20
216.8900771397616
 10
223.7742565675946
 20
217.0249197740223
 10
223.6276689938269
 20
217.1347999442231
 10
223.4634088549829
 20
217.2160303855661
 10
223.28698825235
 20
217.2658852363576
 10
223.1043273576619
 20
217.2826915101432
  0
LWPOLYLINE
  5
26D2
330
1A
100
AcDbEntity
  8
SEIHIN
 48
0.5
100
AcDbPolyline
 90
        8
 70
   128
 43
0.0
 10
221.4307660304019
 20
215.2793895231771
 10
221.6178371185693
 20
215.2617542838694
 10
221.7982048204892
 20
215.2094695440464
 10
221.9655179667278
 20
215.1243763719143
 10
222.1138850693466
 20
215.0094710974598
 10
222.2380817749987
 20
214.8687998046502
 10
222.3337348266523
 20
214.7073158593354
 10
222.397476056218
 20
214.53070548963
  0
LWPOLYLINE
  5
26D3
330
1A
100
AcDbEntity
  8
SEIHIN
 48
0.5
100
AcDbPolyline
 90
        6
 70
   128
 43
0.0
 10
219.9824902569268
 20
213.8315771703136
 10
220.284283748639
 20
213.7840623122622
 10
220.5807465503255
 20
213.6307836512387
 10
220.8106218568415
 20
213.3879368059784
 10
220.9318907401448
 20
213.1369897622666
 10
220.9475142518243
 20
213.0831222947569
  0
LWPOLYLINE
  5
26D4
330
1A
100
AcDbEntity
  8
SEIHIN
 48
0.5
100
AcDbPolyline
 90
        9
 70
   128
 43
0.0
 10
233.052725557619
 20
207.334293310186
 10
233.0359192838335
 20
207.5169542048741
 10
232.986064433042
 20
207.693374807507
 10
232.9048339916989
 20
207.857634946351
 10
232.794953821498
 20
208.0042225201187
 10
232.6601111872374
 20
208.1282184683502
 10
232.5048310227394
 20
208.2254618410381
 10
232.334324086991
 20
208.2926894282304
 10
232.1543121059488
 20
208.3276452640395
  0
LWPOLYLINE
  5
3E29
330
1A
100
AcDbEntity
  8
ZUWAKU
100
AcDbPolyline
 90
        4
 70
     1
 43
0.0
 10
0.4000004691137065
 20
275.3999997642576
 10
0.4000004691137065
 20
0.3999997642576431
 10
398.4000004691137
 20
0.3999997642576431
 10
398.4000004691137
 20
275.3999997642576
  0
LWPOLYLINE
  5
3E2A
330
1A
100
AcDbEntity
  8
ZUWAKU
100
AcDbPolyline
 90
        4
 70
     1
 43
0.0
 10
0.2000004691137178
 20
275.5999997642576
 10
0.2000004691137178
 20
0.1999997642576545
 10
398.6000004691137
 20
0.199999764257643
 10
398.6000004691137
 20
275.5999997642576
  0
LWPOLYLINE
  5
3E2B
330
1A
100
AcDbEntity
  8
ZUWAKU
100
AcDbPolyline
 90
        4
 70
     1
 43
0.0
 10
0.0000004691137292
 20
275.7999997642576
 10
0.0000004691137292
 20
-0.0000002357423909
 10
398.8000004691138
 20
-0.0000002357423572
 10
398.8000004691138
 20
275.7999997642576
  0
LWPOLYLINE
  5
3E2C
330
1A
100
AcDbEntity
  8
ZUWAKU
100
AcDbPolyline
 90
        4
 70
     1
 43
0.0
 10
0.3000004691136837
 20
275.4999997642576
 10
0.3000004691136837
 20
0.2999997642576204
 10
398.5000004691138
 20
0.2999997642576435
 10
398.5000004691137
 20
275.4999997642576
  0
LWPOLYLINE
  5
3E2D
330
1A
100
AcDbEntity
  8
ZUWAKU
100
AcDbPolyline
 90
        4
 70
     1
 43
0.0
 10
0.1000004691136951
 20
275.6999997642576
 10
0.1000004691136951
 20
0.0999997642576318
 10
398.7000004691136
 20
0.0999997642576434
 10
398.7000004691137
 20
275.6999997642576
  0
LINE
  5
3E2E
330
1A
100
AcDbEntity
  8
ZUWAKU
100
AcDbLine
 10
104.3233011141477
 20
7.599999764257628
 30
0.0
 11
223.7121824546094
 21
7.599999764257624
 31
0.0
  0
LINE
  5
3E2F
330
1A
100
AcDbEntity
  8
ZUWAKU
100
AcDbLine
 10
104.3233011141477
 20
7.799999764257625
 30
0.0
 11
223.7121824546094
 21
7.799999764257629
 31
0.0
  0
LINE
  5
3E30
330
1A
100
AcDbEntity
  8
ZUWAKU
100
AcDbLine
 10
104.3233011141477
 20
7.699999764257626
 30
0.0
 11
223.7121824546094
 21
7.699999764257626
 31
0.0
  0
TEXT
  5
3E31
330
1A
100
AcDbEntity
  8
MOJI
100
AcDbText
 10
119.9136018095392
 20
1.602460292961319
 30
0.0
 40
2.799999999999999
  1
ＶＭ１２０－Ｙ６０Ｈ・ＵＴ６０
 41
0.9
  7
ｽﾀｲﾙ1
100
AcDbText
  0
LINE
  5
3E32
330
1A
100
AcDbEntity
  8
ZUWAKU
100
AcDbLine
 10
0.0000004691137292
 20
14.9999997642576
 30
0.0
 11
398.7000004691136
 21
14.9999997642576
 31
0.0
  0
LINE
  5
3E33
330
1A
100
AcDbEntity
  8
ZUWAKU
100
AcDbLine
 10
0.0000004691137292
 20
15.09999976425761
 30
0.0
 11
398.7000004691136
 21
15.09999976425761
 31
0.0
  0
LINE
  5
3E34
330
1A
100
AcDbEntity
  8
ZUWAKU
100
AcDbLine
 10
0.0000004691137292
 20
15.19999976425761
 30
0.0
 11
398.7000004691136
 21
15.19999976425761
 31
0.0
  0
LINE
  5
3E35
330
1A
100
AcDbEntity
  8
ZUWAKU
100
AcDbLine
 10
0.0000004691137292
 20
15.29999976425761
 30
0.0
 11
398.7000004691136
 21
15.29999976425761
 31
0.0
  0
LINE
  5
3E36
330
1A
100
AcDbEntity
  8
ZUWAKU
100
AcDbLine
 10
0.0000004691137292
 20
15.39999976425761
 30
0.0
 11
398.7000004691136
 21
15.39999976425761
 31
0.0
  0
ARC
  5
3E37
330
1A
100
AcDbEntity
  8
ZUWAKU
100
AcDbCircle
 10
24.37110654650428
 20
5.882600776935262
 30
0.0
 40
2.099999999999999
100
AcDbArc
 50
0.0
 51
45.0
  0
ARC
  5
3E38
330
1A
100
AcDbEntity
  8
ZUWAKU
100
AcDbCircle
 10
25.07110654650432
 20
4.97499976425761
 30
0.0
 40
1.399999999999999
100
AcDbArc
 50
270.0
 51
0.0
  0
HATCH
  5
3E39
330
1A
100
AcDbEntity
  8
ZUWAKU
100
AcDbHatch
 10
0.0
 20
0.0
 30
0.0
210
0.0
220
0.0
230
1.0
  2
ANSI37
 70
     0
 71
     0
 91
        8
 92
        7
 72
     1
 73
     1
 93
       24
 10
7.251131799673657
 20
8.8224240047494
 42
-0.1989123673796348
 10
7.04610654650429
 20
9.317398751579926
 42
0.0
 10
7.04610654650429
 20
9.962499764257614
 42
-0.4142135623730912
 10
7.308606546504279
 20
10.22499976425761
 42
0.0
 10
8.796106546504233
 20
10.22499976425761
 42
0.4142135623731546
 10
9.058606546504279
 20
10.4874997642576
 42
0.0
 10
9.058606546504279
 20
11.36249976425761
 42
0.4142135623731586
 10
8.796106546504233
 20
11.62499976425761
 42
0.0
 10
7.04610654650429
 20
11.62499976425761
 42
0.4142135623730928
 10
5.646106546504313
 20
10.22499976425762
 42
0.0
 10
5.646106546504313
 20
9.31739875157999
 42
0.1989123673796619
 10
6.261182306012528
 20
7.832474511088186
 42
0.0
 10
7.716081293334866
 20
6.377575523765857
 42
-0.1989123673796613
 10
7.92110654650429
 20
5.882600776935264
 42
0.0
 10
7.92110654650429
 20
5.237499764257606
 42
-0.4142135623730911
 10
7.658606546504302
 20
4.97499976425761
 42
0.0
 10
6.171106546504347
 20
4.97499976425761
 42
0.4142135623731526
 10
5.908606546504302
 20
4.712499764257616
 42
0.0
 10
5.908606546504302
 20
3.837499764257605
 42
0.4142135623731526
 10
6.171106546504347
 20
3.574999764257611
 42
0.0
 10
7.92110654650429
 20
3.574999764257611
 42
0.4142135623731044
 10
9.321106546504324
 20
4.974999764257599
 42
0.0
 10
9.321106546504324
 20
5.882600776935236
 42
0.1989123673796604
 10
8.706030786996052
 20
7.367525017427006
 42
0.0
 97
        0
 92
        7
 72
     1
 73
     1
 93
       16
 10
11.77110654650431
 20
9.524999764257614
 42
-0.4142135623730935
 10
12.4711065465043
 20
10.22499976425761
 42
0.0
 10
13.43360654650427
 20
10.22499976425761
 42
0.4142135623731546
 10
13.69610654650432
 20
10.4874997642576
 42
0.0
 10
13.69610654650432
 20
11.36249976425761
 42
0.4142135623730951
 10
13.43360654650433
 20
11.62499976425761
 42
0.0
 10
12.47110654650424
 20
11.62499976425759
 42
0.4142135623730892
 10
10.37110654650428
 20
9.524999764257579
 42
0.0
 10
10.37110654650428
 20
5.674999764257623
 42
0.4142135623730969
 10
12.4711065465043
 20
3.574999764257611
 42
0.0
 10
13.43360654650427
 20
3.574999764257611
 42
0.4142135623731526
 10
13.69610654650432
 20
3.837499764257605
 42
0.0
 10
13.69610654650432
 20
4.712499764257616
 42
0.4142135623730891
 10
13.43360654650433
 20
4.97499976425761
 42
0.0
 10
12.4711065465043
 20
4.97499976425761
 42
-0.4142135623730928
 10
11.77110654650431
 20
5.674999764257604
 42
0.0
 97
        0
 92
        7
 72
     1
 73
     1
 93
        2
 10
12.12110654650428
 20
7.59999976425761
 42
1.0
 10
13.87110654650427
 20
7.59999976425761
 42
1.0
 97
        0
 92
        7
 72
     1
 73
     1
 93
       26
 10
18.65742978759328
 20
9.602523361039324
 42
0.0
 10
19.18824960416219
 20
11.28345278017411
 42
0.5069206636600134
 10
18.93793415456451
 20
11.62499976425761
 42
0.0
 10
18.0884894647599
 20
11.62499976425761
 42
0.3272098845218764
 10
17.83817401516222
 20
11.44154674834109
 42
0.0
 10
16.90403907784633
 20
8.48345278017415
 42
-0.3272098845219541
 10
16.6537236282486
 20
8.299999764257609
 42
0.0
 10
16.58360654650437
 20
8.299999764257609
 42
-0.4142135623731526
 10
16.32110654650432
 20
8.562499764257603
 42
0.0
 10
16.32110654650432
 20
11.36249976425761
 42
0.4142135623730951
 10
16.05860654650433
 20
11.62499976425761
 42
0.0
 10
15.18360654650428
 20
11.62499976425761
 42
0.4142135623730871
 10
14.92110654650429
 20
11.36249976425762
 42
0.0
 10
14.92110654650429
 20
3.837499764257605
 42
0.4142135623730891
 10
15.18360654650428
 20
3.574999764257611
 42
0.0
 10
16.05860654650427
 20
3.574999764257611
 42
0.4142135623731526
 10
16.32110654650432
 20
3.837499764257605
 42
0.0
 10
16.32110654650432
 20
6.637499764257617
 42
-0.4142135623731526
 10
16.58360654650437
 20
6.899999764257611
 42
0.0
 10
16.65372362824865
 20
6.899999764257611
 42
-0.3272098845218915
 10
16.90403907784633
 20
6.716546748341073
 42
0.0
 10
17.83817401516222
 20
3.758452780174147
 42
0.3272098845218902
 10
18.0884894647599
 20
3.574999764257611
 42
0.0
 10
18.93793415456451
 20
3.574999764257611
 42
0.5069206636600335
 10
19.18824960416219
 20
3.916546748341115
 42
0.0
 10
18.02505391492536
 20
7.599999764257679
 42
0.0
 97
        0
 92
        7
 72
     1
 73
     1
 93
        8
 10
21.74610654650428
 20
11.36249976425761
 42
0.4142135623731546
 10
21.48360654650423
 20
11.62499976425761
 42
0.0
 10
20.60860654650434
 20
11.62499976425761
 42
0.4142135623731507
 10
20.3461065465043
 20
11.36249976425762
 42
0.0
 10
20.3461065465043
 20
3.837499764257605
 42
0.4142135623731526
 10
20.60860654650434
 20
3.574999764257611
 42
0.0
 10
21.48360654650423
 20
3.574999764257611
 42
0.4142135623731526
 10
21.74610654650428
 20
3.837499764257605
 42
0.0
 97
        0
 92
        7
 72
     1
 73
     1
 93
       24
 10
24.19610654650432
 20
9.962499764257614
 42
-0.4142135623731546
 10
24.45860654650437
 20
10.22499976425761
 42
0.0
 10
25.94610654650432
 20
10.22499976425761
 42
0.4142135623730911
 10
26.20860654650431
 20
10.4874997642576
 42
0.0
 10
26.20860654650431
 20
11.36249976425761
 42
0.4142135623730952
 10
25.94610654650432
 20
11.62499976425761
 42
0.0
 10
24.19610654650432
 20
11.62499976425761
 42
0.4142135623731048
 10
22.79610654650429
 20
10.22499976425762
 42
0.0
 10
22.79610654650429
 20
9.31739875157999
 42
0.1989123673796613
 10
23.41118230601256
 20
7.832474511088214
 42
0.0
 10
24.8660812933349
 20
6.37757552376588
 42
-0.1989123673796402
 10
25.07110654650432
 20
5.882600776935344
 42
0.0
 10
25.07110654650432
 20
5.237499764257606
 42
-0.4142135623730911
 10
24.80860654650433
 20
4.97499976425761
 42
0.0
 10
23.32110654650432
 20
4.97499976425761
 42
0.4142135623731526
 10
23.05860654650428
 20
4.712499764257616
 42
0.0
 10
23.05860654650428
 20
3.837499764257605
 42
0.4142135623730891
 10
23.32110654650426
 20
3.574999764257611
 42
0.0
 10
25.07110654650432
 20
3.574999764257611
 42
0.4142135623730925
 10
26.4711065465043
 20
4.974999764257599
 42
0.0
 10
26.4711065465043
 20
5.882600776935236
 42
0.1989123673796675
 10
25.85603078699603
 20
7.367525017427063
 42
0.0
 10
24.40113179967374
 20
8.82242400474932
 42
-0.1989123673796652
 10
24.19610654650432
 20
9.317398751579904
 42
0.0
 97
        0
 92
        7
 72
     1
 73
     1
 93
       16
 10
28.92110654650429
 20
11.3624997642576
 42
0.414213562373103
 10
28.6586065465043
 20
11.62499976425761
 42
0.0
 10
27.7836065465043
 20
11.62499976425761
 42
0.4142135623730871
 10
27.52110654650431
 20
11.36249976425762
 42
0.0
 10
27.52110654650431
 20
4.974999764257599
 42
0.4142135623730926
 10
28.92110654650429
 20
3.574999764257611
 42
0.0
 10
30.67110654650429
 20
3.574999764257611
 42
0.4142135623731044
 10
32.07110654650432
 20
4.974999764257599
 42
0.0
 10
32.07110654650432
 20
11.36249976425761
 42
0.4142135623730951
 10
31.80860654650433
 20
11.62499976425761
 42
0.0
 10
30.93360654650428
 20
11.62499976425761
 42
0.4142135623730871
 10
30.67110654650429
 20
11.36249976425762
 42
0.0
 10
30.67110654650429
 20
5.499999764257598
 42
-0.414213562373088
 10
30.14610654650431
 20
4.97499976425761
 42
0.0
 10
29.44610654650432
 20
4.97499976425761
 42
-0.4142135623731197
 10
28.92110654650429
 20
5.499999764257598
 42
0.0
 97
        0
 92
        7
 72
     1
 73
     1
 93
        8
 10
34.52110654650431
 20
11.36249976425762
 42
0.4142135623730871
 10
34.25860654650432
 20
11.62499976425761
 42
0.0
 10
33.38360654650432
 20
11.62499976425761
 42
0.4142135623731507
 10
33.12110654650428
 20
11.36249976425762
 42
0.0
 10
33.12110654650428
 20
3.837499764257605
 42
0.4142135623730891
 10
33.38360654650426
 20
3.574999764257611
 42
0.0
 10
34.25860654650432
 20
3.574999764257611
 42
0.4142135623730891
 10
34.52110654650431
 20
3.837499764257605
 42
0.0
 97
        0
 75
     0
 76
     1
 52
0.0
 41
0.1
 77
     0
 78
     2
 53
45.0
 43
-450.4711516982257
 44
-6.600000235742356
 45
-0.2245064030267288
 46
0.2245064030267288
 79
     0
 53
135.0
 43
-450.4711516982257
 44
-6.600000235742356
 45
-0.2245064030267288
 46
-0.2245064030267288
 79
     0
 47
0.057451373970553
 98
        8
 10
8.039927950625383
 20
7.583586587200386
 10
11.20225797233331
 20
9.422030855483114
 10
12.58218441194355
 20
7.755940587292968
 10
15.45703045993229
 20
8.10064858747836
 10
20.91923647859209
 20
8.330454721249168
 10
23.4491009166785
 20
9.709287922461214
 10
28.2788434553139
 20
9.364578721805116
 10
33.91354027892509
 20
9.594384855575924
  0
LINE
  5
3E3A
330
1A
100
AcDbEntity
  8
ZUWAKU
100
AcDbLine
 10
17.83817401516222
 20
11.44154674834109
 30
0.0
 11
16.90403907784633
 21
8.483452780174125
 31
0.0
  0
LINE
  5
3E3B
330
1A
100
AcDbEntity
  8
ZUWAKU
100
AcDbLine
 10
16.32110654650432
 20
8.562499764257612
 30
0.0
 11
16.32110654650432
 21
11.3624997642576
 31
0.0
  0
LINE
  5
3E3C
330
1A
100
AcDbEntity
  8
ZUWAKU
100
AcDbLine
 10
14.92110654650429
 20
11.3624997642576
 30
0.0
 11
14.92110654650429
 21
3.837499764257611
 31
0.0
  0
LINE
  5
3E3D
330
1A
100
AcDbEntity
  8
ZUWAKU
100
AcDbLine
 10
10.37110654650428
 20
5.674999764257613
 30
0.0
 11
10.37110654650428
 21
9.524999764257589
 31
0.0
  0
LINE
  5
3E3E
330
1A
100
AcDbEntity
  8
ZUWAKU
100
AcDbLine
 10
11.77110654650431
 20
9.524999764257611
 30
0.0
 11
11.77110654650431
 21
5.674999764257613
 31
0.0
  0
LINE
  5
3E3F
330
1A
100
AcDbEntity
  8
ZUWAKU
100
AcDbLine
 10
21.74610654650428
 20
3.837499764257611
 30
0.0
 11
21.74610654650428
 21
11.3624997642576
 31
0.0
  0
LINE
  5
3E40
330
1A
100
AcDbEntity
  8
ZUWAKU
100
AcDbLine
 10
20.3461065465043
 20
11.3624997642576
 30
0.0
 11
20.3461065465043
 21
3.837499764257611
 31
0.0
  0
LINE
  5
3E41
330
1A
100
AcDbEntity
  8
ZUWAKU
100
AcDbLine
 10
18.65742978759328
 20
9.602523361039324
 30
0.0
 11
18.02505391492536
 21
7.599999764257621
 31
0.0
  0
ARC
  5
3E42
330
1A
100
AcDbEntity
  8
ZUWAKU
100
AcDbCircle
 10
24.89610654650431
 20
9.317398751579961
 30
0.0
 40
2.099999999999999
100
AcDbArc
 50
180.0
 51
225.0
  0
ARC
  5
3E43
330
1A
100
AcDbEntity
  8
ZUWAKU
100
AcDbCircle
 10
24.89610654650431
 20
9.317398751579961
 30
0.0
 40
0.7
100
AcDbArc
 50
180.0000000000016
 51
224.9999999999988
  0
ARC
  5
3E44
330
1A
100
AcDbEntity
  8
ZUWAKU
100
AcDbCircle
 10
7.746106546504279
 20
9.317398751579961
 30
0.0
 40
0.7
100
AcDbArc
 50
180.0000000000016
 51
224.9999999999988
  0
ARC
  5
3E45
330
1A
100
AcDbEntity
  8
ZUWAKU
100
AcDbCircle
 10
7.746106546504279
 20
9.317398751579961
 30
0.0
 40
2.099999999999999
100
AcDbArc
 50
180.0
 51
225.0
  0
ARC
  5
3E46
330
1A
100
AcDbEntity
  8
ZUWAKU
100
AcDbCircle
 10
12.4711065465043
 20
5.674999764257613
 30
0.0
 40
2.099999999999999
100
AcDbArc
 50
180.0
 51
270.0
  0
ARC
  5
3E47
330
1A
100
AcDbEntity
  8
ZUWAKU
100
AcDbCircle
 10
7.92110654650429
 20
4.97499976425761
 30
0.0
 40
1.399999999999999
100
AcDbArc
 50
270.0
 51
0.0
  0
ARC
  5
3E48
330
1A
100
AcDbEntity
  8
ZUWAKU
100
AcDbCircle
 10
7.221106546504302
 20
5.882600776935262
 30
0.0
 40
2.099999999999999
100
AcDbArc
 50
0.0
 51
45.0
  0
ARC
  5
3E49
330
1A
100
AcDbEntity
  8
ZUWAKU
100
AcDbCircle
 10
7.221106546504302
 20
5.882600776935284
 30
0.0
 40
0.7
100
AcDbArc
 50
0.0
 51
45.0
  0
LINE
  5
3E4A
330
1A
100
AcDbEntity
  8
ZUWAKU
100
AcDbLine
 10
7.92110654650429
 20
5.237499764257613
 30
0.0
 11
7.92110654650429
 21
5.882600776935284
 31
0.0
  0
LINE
  5
3E4B
330
1A
100
AcDbEntity
  8
ZUWAKU
100
AcDbLine
 10
9.321106546504324
 20
4.97499976425761
 30
0.0
 11
9.321106546504324
 21
5.882600776935284
 31
0.0
  0
LINE
  5
3E4C
330
1A
100
AcDbEntity
  8
ZUWAKU
100
AcDbLine
 10
6.17110654650429
 20
4.97499976425761
 30
0.0
 11
7.658606546504302
 21
4.97499976425761
 31
0.0
  0
ARC
  5
3E4D
330
1A
100
AcDbEntity
  8
ZUWAKU
100
AcDbCircle
 10
6.17110654650429
 20
4.712499764257611
 30
0.0
 40
0.2625
100
AcDbArc
 50
90.0
 51
180.0
  0
ARC
  5
3E4E
330
1A
100
AcDbEntity
  8
ZUWAKU
100
AcDbCircle
 10
6.17110654650429
 20
3.837499764257611
 30
0.0
 40
0.2625
100
AcDbArc
 50
180.0
 51
270.0
  0
LINE
  5
3E4F
330
1A
100
AcDbEntity
  8
ZUWAKU
100
AcDbLine
 10
5.908606546504302
 20
3.837499764257611
 30
0.0
 11
5.908606546504302
 21
4.712499764257611
 31
0.0
  0
LINE
  5
3E50
330
1A
100
AcDbEntity
  8
ZUWAKU
100
AcDbLine
 10
6.261182306012528
 20
7.8324745110882
 30
0.0
 11
7.716081293334866
 21
6.37757552376587
 31
0.0
  0
LINE
  5
3E51
330
1A
100
AcDbEntity
  8
ZUWAKU
100
AcDbLine
 10
6.17110654650429
 20
3.574999764257611
 30
0.0
 11
7.92110654650429
 21
3.574999764257611
 31
0.0
  0
ARC
  5
3E52
330
1A
100
AcDbEntity
  8
ZUWAKU
100
AcDbCircle
 10
7.658606546504302
 20
5.237499764257613
 30
0.0
 40
0.2625
100
AcDbArc
 50
270.0
 51
0.0
  0
LINE
  5
3E53
330
1A
100
AcDbEntity
  8
ZUWAKU
100
AcDbLine
 10
8.706030786996052
 20
7.367525017427023
 30
0.0
 11
7.251131799673714
 21
8.822424004749361
 31
0.0
  0
LINE
  5
3E54
330
1A
100
AcDbEntity
  8
ZUWAKU
100
AcDbLine
 10
19.18824960416219
 20
3.916546748341097
 30
0.0
 11
18.02505391492536
 21
7.599999764257621
 31
0.0
  0
LINE
  5
3E55
330
1A
100
AcDbEntity
  8
ZUWAKU
100
AcDbLine
 10
18.08848946475995
 20
3.574999764257611
 30
0.0
 11
18.93793415456445
 21
3.574999764257611
 31
0.0
  0
LINE
  5
3E56
330
1A
100
AcDbEntity
  8
ZUWAKU
100
AcDbLine
 10
17.83817401516222
 20
3.758452780174124
 30
0.0
 11
16.90403907784633
 21
6.716546748341094
 31
0.0
  0
ARC
  5
3E57
330
1A
100
AcDbEntity
  8
ZUWAKU
100
AcDbCircle
 10
18.08848946475995
 20
3.837499764257611
 30
0.0
 40
0.2625
100
AcDbArc
 50
197.525568373723
 51
270.0
  0
ARC
  5
3E58
330
1A
100
AcDbEntity
  8
ZUWAKU
100
AcDbCircle
 10
16.58360654650431
 20
6.637499764257611
 30
0.0
 40
0.2625
100
AcDbArc
 50
90.0
 51
180.0
  0
ARC
  5
3E59
330
1A
100
AcDbEntity
  8
ZUWAKU
100
AcDbCircle
 10
16.65372362824865
 20
6.637499764257611
 30
0.0
 40
0.2625
100
AcDbArc
 50
17.52556837372303
 51
90.0
  0
LINE
  5
3E5A
330
1A
100
AcDbEntity
  8
ZUWAKU
100
AcDbLine
 10
16.32110654650432
 20
3.837499764257611
 30
0.0
 11
16.32110654650432
 21
6.637499764257611
 31
0.0
  0
ARC
  5
3E5B
330
1A
100
AcDbEntity
  8
ZUWAKU
100
AcDbCircle
 10
16.05860654650427
 20
3.837499764257611
 30
0.0
 40
0.2625
100
AcDbArc
 50
270.0
 51
0.0
  0
LINE
  5
3E5C
330
1A
100
AcDbEntity
  8
ZUWAKU
100
AcDbLine
 10
16.58360654650431
 20
6.899999764257611
 30
0.0
 11
16.65372362824865
 21
6.899999764257611
 31
0.0
  0
LINE
  5
3E5D
330
1A
100
AcDbEntity
  8
ZUWAKU
100
AcDbLine
 10
16.65372362824865
 20
8.299999764257609
 30
0.0
 11
16.58360654650431
 21
8.299999764257609
 31
0.0
  0
CIRCLE
  5
3E5E
330
1A
100
AcDbEntity
  8
ZUWAKU
100
AcDbCircle
 10
12.99610654650428
 20
7.59999976425761
 30
0.0
 40
0.875
  0
ARC
  5
3E5F
330
1A
100
AcDbEntity
  8
ZUWAKU
100
AcDbCircle
 10
12.4711065465043
 20
5.674999764257613
 30
0.0
 40
0.7
100
AcDbArc
 50
180.0
 51
270.0
  0
ARC
  5
3E60
330
1A
100
AcDbEntity
  8
ZUWAKU
100
AcDbCircle
 10
15.18360654650428
 20
3.837499764257611
 30
0.0
 40
0.2625
100
AcDbArc
 50
180.0
 51
270.0
  0
ARC
  5
3E61
330
1A
100
AcDbEntity
  8
ZUWAKU
100
AcDbCircle
 10
13.43360654650427
 20
4.712499764257611
 30
0.0
 40
0.2625
100
AcDbArc
 50
0.0
 51
90.0
  0
ARC
  5
3E62
330
1A
100
AcDbEntity
  8
ZUWAKU
100
AcDbCircle
 10
13.43360654650427
 20
3.837499764257611
 30
0.0
 40
0.2625
100
AcDbArc
 50
270.0
 51
0.0
  0
LINE
  5
3E63
330
1A
100
AcDbEntity
  8
ZUWAKU
100
AcDbLine
 10
13.43360654650427
 20
3.574999764257611
 30
0.0
 11
12.4711065465043
 21
3.574999764257611
 31
0.0
  0
LINE
  5
3E64
330
1A
100
AcDbEntity
  8
ZUWAKU
100
AcDbLine
 10
13.69610654650432
 20
4.712499764257611
 30
0.0
 11
13.69610654650432
 21
3.837499764257611
 31
0.0
  0
LINE
  5
3E65
330
1A
100
AcDbEntity
  8
ZUWAKU
100
AcDbLine
 10
12.4711065465043
 20
4.97499976425761
 30
0.0
 11
13.43360654650427
 21
4.97499976425761
 31
0.0
  0
LINE
  5
3E66
330
1A
100
AcDbEntity
  8
ZUWAKU
100
AcDbLine
 10
15.18360654650428
 20
3.574999764257611
 30
0.0
 11
16.05860654650427
 21
3.574999764257611
 31
0.0
  0
ARC
  5
3E67
330
1A
100
AcDbEntity
  8
ZUWAKU
100
AcDbCircle
 10
16.58360654650431
 20
8.562499764257612
 30
0.0
 40
0.2625
100
AcDbArc
 50
180.0
 51
270.0
  0
ARC
  5
3E68
330
1A
100
AcDbEntity
  8
ZUWAKU
100
AcDbCircle
 10
16.65372362824865
 20
8.562499764257612
 30
0.0
 40
0.2625
100
AcDbArc
 50
270.0
 51
342.4744316262769
  0
ARC
  5
3E69
330
1A
100
AcDbEntity
  8
ZUWAKU
100
AcDbCircle
 10
24.80860654650427
 20
5.237499764257613
 30
0.0
 40
0.2625
100
AcDbArc
 50
270.0
 51
0.0
  0
ARC
  5
3E6A
330
1A
100
AcDbEntity
  8
ZUWAKU
100
AcDbCircle
 10
24.37110654650428
 20
5.882600776935284
 30
0.0
 40
0.7
100
AcDbArc
 50
0.0
 51
45.0
  0
LINE
  5
3E6B
330
1A
100
AcDbEntity
  8
ZUWAKU
100
AcDbLine
 10
25.07110654650432
 20
5.237499764257613
 30
0.0
 11
25.07110654650432
 21
5.882600776935284
 31
0.0
  0
LINE
  5
3E6C
330
1A
100
AcDbEntity
  8
ZUWAKU
100
AcDbLine
 10
26.4711065465043
 20
4.97499976425761
 30
0.0
 11
26.4711065465043
 21
5.882600776935284
 31
0.0
  0
LINE
  5
3E6D
330
1A
100
AcDbEntity
  8
ZUWAKU
100
AcDbLine
 10
25.85603078699608
 20
7.367525017427023
 30
0.0
 11
24.40113179967369
 21
8.822424004749361
 31
0.0
  0
LINE
  5
3E6E
330
1A
100
AcDbEntity
  8
ZUWAKU
100
AcDbLine
 10
20.60860654650429
 20
3.574999764257611
 30
0.0
 11
21.48360654650429
 21
3.574999764257611
 31
0.0
  0
ARC
  5
3E6F
330
1A
100
AcDbEntity
  8
ZUWAKU
100
AcDbCircle
 10
18.93793415456445
 20
3.837499764257611
 30
0.0
 40
0.2625
100
AcDbArc
 50
270.0
 51
17.52556837372303
  0
ARC
  5
3E70
330
1A
100
AcDbEntity
  8
ZUWAKU
100
AcDbCircle
 10
20.60860654650429
 20
3.837499764257611
 30
0.0
 40
0.2625
100
AcDbArc
 50
180.0
 51
270.0
  0
ARC
  5
3E71
330
1A
100
AcDbEntity
  8
ZUWAKU
100
AcDbCircle
 10
23.32110654650432
 20
4.712499764257611
 30
0.0
 40
0.2625
100
AcDbArc
 50
90.0
 51
180.0
  0
ARC
  5
3E72
330
1A
100
AcDbEntity
  8
ZUWAKU
100
AcDbCircle
 10
21.48360654650429
 20
3.837499764257611
 30
0.0
 40
0.2625
100
AcDbArc
 50
270.0
 51
0.0
  0
ARC
  5
3E73
330
1A
100
AcDbEntity
  8
ZUWAKU
100
AcDbCircle
 10
23.32110654650432
 20
3.837499764257611
 30
0.0
 40
0.2625
100
AcDbArc
 50
180.0
 51
270.0
  0
LINE
  5
3E74
330
1A
100
AcDbEntity
  8
ZUWAKU
100
AcDbLine
 10
23.05860654650428
 20
3.837499764257611
 30
0.0
 11
23.05860654650428
 21
4.712499764257611
 31
0.0
  0
LINE
  5
3E75
330
1A
100
AcDbEntity
  8
ZUWAKU
100
AcDbLine
 10
23.41118230601256
 20
7.8324745110882
 30
0.0
 11
24.8660812933349
 21
6.37757552376587
 31
0.0
  0
LINE
  5
3E76
330
1A
100
AcDbEntity
  8
ZUWAKU
100
AcDbLine
 10
23.32110654650432
 20
3.574999764257611
 30
0.0
 11
25.07110654650432
 21
3.574999764257611
 31
0.0
  0
LINE
  5
3E77
330
1A
100
AcDbEntity
  8
ZUWAKU
100
AcDbLine
 10
23.32110654650432
 20
4.97499976425761
 30
0.0
 11
24.80860654650427
 21
4.97499976425761
 31
0.0
  0
ARC
  5
3E78
330
1A
100
AcDbEntity
  8
ZUWAKU
100
AcDbCircle
 10
12.4711065465043
 20
9.524999764257589
 30
0.0
 40
2.099999999999999
100
AcDbArc
 50
90.0
 51
180.0
  0
LINE
  5
3E79
330
1A
100
AcDbEntity
  8
ZUWAKU
100
AcDbLine
 10
9.058606546504279
 20
11.3624997642576
 30
0.0
 11
9.058606546504279
 21
10.48749976425761
 31
0.0
  0
ARC
  5
3E7A
330
1A
100
AcDbEntity
  8
ZUWAKU
100
AcDbCircle
 10
8.79610654650429
 20
10.48749976425761
 30
0.0
 40
0.2625
100
AcDbArc
 50
270.0
 51
0.0
  0
ARC
  5
3E7B
330
1A
100
AcDbEntity
  8
ZUWAKU
100
AcDbCircle
 10
8.79610654650429
 20
11.3624997642576
 30
0.0
 40
0.2625
100
AcDbArc
 50
0.0
 51
90.0
  0
ARC
  5
3E7C
330
1A
100
AcDbEntity
  8
ZUWAKU
100
AcDbCircle
 10
7.04610654650429
 20
10.22499976425761
 30
0.0
 40
1.399999999999999
100
AcDbArc
 50
90.0
 51
180.0
  0
LINE
  5
3E7D
330
1A
100
AcDbEntity
  8
ZUWAKU
100
AcDbLine
 10
5.646106546504313
 20
10.22499976425761
 30
0.0
 11
5.646106546504313
 21
9.31739875157994
 31
0.0
  0
LINE
  5
3E7E
330
1A
100
AcDbEntity
  8
ZUWAKU
100
AcDbLine
 10
7.04610654650429
 20
9.962499764257611
 30
0.0
 11
7.04610654650429
 21
9.31739875157994
 31
0.0
  0
ARC
  5
3E7F
330
1A
100
AcDbEntity
  8
ZUWAKU
100
AcDbCircle
 10
7.308606546504279
 20
9.962499764257611
 30
0.0
 40
0.2625
100
AcDbArc
 50
90.0
 51
180.0
  0
LINE
  5
3E80
330
1A
100
AcDbEntity
  8
ZUWAKU
100
AcDbLine
 10
8.79610654650429
 20
10.22499976425761
 30
0.0
 11
7.308606546504279
 21
10.22499976425761
 31
0.0
  0
LINE
  5
3E81
330
1A
100
AcDbEntity
  8
ZUWAKU
100
AcDbLine
 10
7.04610654650429
 20
11.62499976425761
 30
0.0
 11
8.79610654650429
 21
11.62499976425761
 31
0.0
  0
LINE
  5
3E82
330
1A
100
AcDbEntity
  8
ZUWAKU
100
AcDbLine
 10
18.08848946475995
 20
11.62499976425761
 30
0.0
 11
18.93793415456445
 21
11.62499976425761
 31
0.0
  0
ARC
  5
3E83
330
1A
100
AcDbEntity
  8
ZUWAKU
100
AcDbCircle
 10
18.08848946475995
 20
11.3624997642576
 30
0.0
 40
0.2625
100
AcDbArc
 50
90.0
 51
162.4744316262769
  0
ARC
  5
3E84
330
1A
100
AcDbEntity
  8
ZUWAKU
100
AcDbCircle
 10
16.05860654650427
 20
11.3624997642576
 30
0.0
 40
0.2625
100
AcDbArc
 50
0.0
 51
90.0
  0
ARC
  5
3E85
330
1A
100
AcDbEntity
  8
ZUWAKU
100
AcDbCircle
 10
12.4711065465043
 20
9.524999764257611
 30
0.0
 40
0.7
100
AcDbArc
 50
90.0
 51
180.0
  0
LINE
  5
3E86
330
1A
100
AcDbEntity
  8
ZUWAKU
100
AcDbLine
 10
13.69610654650432
 20
11.3624997642576
 30
0.0
 11
13.69610654650432
 21
10.48749976425761
 31
0.0
  0
ARC
  5
3E87
330
1A
100
AcDbEntity
  8
ZUWAKU
100
AcDbCircle
 10
13.43360654650427
 20
10.48749976425761
 30
0.0
 40
0.2625
100
AcDbArc
 50
270.0
 51
0.0
  0
LINE
  5
3E88
330
1A
100
AcDbEntity
  8
ZUWAKU
100
AcDbLine
 10
13.43360654650427
 20
10.22499976425761
 30
0.0
 11
12.4711065465043
 21
10.22499976425761
 31
0.0
  0
ARC
  5
3E89
330
1A
100
AcDbEntity
  8
ZUWAKU
100
AcDbCircle
 10
15.18360654650428
 20
11.3624997642576
 30
0.0
 40
0.2625
100
AcDbArc
 50
90.0
 51
180.0
  0
ARC
  5
3E8A
330
1A
100
AcDbEntity
  8
ZUWAKU
100
AcDbCircle
 10
13.43360654650427
 20
11.3624997642576
 30
0.0
 40
0.2625
100
AcDbArc
 50
0.0
 51
90.0
  0
LINE
  5
3E8B
330
1A
100
AcDbEntity
  8
ZUWAKU
100
AcDbLine
 10
12.4711065465043
 20
11.62499976425759
 30
0.0
 11
13.43360654650427
 21
11.62499976425761
 31
0.0
  0
LINE
  5
3E8C
330
1A
100
AcDbEntity
  8
ZUWAKU
100
AcDbLine
 10
16.05860654650427
 20
11.62499976425761
 30
0.0
 11
15.18360654650428
 21
11.62499976425761
 31
0.0
  0
LINE
  5
3E8D
330
1A
100
AcDbEntity
  8
ZUWAKU
100
AcDbLine
 10
26.20860654650431
 20
11.3624997642576
 30
0.0
 11
26.20860654650431
 21
10.48749976425761
 31
0.0
  0
LINE
  5
3E8E
330
1A
100
AcDbEntity
  8
ZUWAKU
100
AcDbLine
 10
25.94610654650432
 20
10.22499976425761
 30
0.0
 11
24.45860654650431
 21
10.22499976425761
 31
0.0
  0
ARC
  5
3E8F
330
1A
100
AcDbEntity
  8
ZUWAKU
100
AcDbCircle
 10
25.94610654650432
 20
10.48749976425761
 30
0.0
 40
0.2625
100
AcDbArc
 50
270.0
 51
0.0
  0
ARC
  5
3E90
330
1A
100
AcDbEntity
  8
ZUWAKU
100
AcDbCircle
 10
25.94610654650432
 20
11.3624997642576
 30
0.0
 40
0.2625
100
AcDbArc
 50
0.0
 51
90.0
  0
ARC
  5
3E91
330
1A
100
AcDbEntity
  8
ZUWAKU
100
AcDbCircle
 10
24.19610654650432
 20
10.22499976425761
 30
0.0
 40
1.399999999999999
100
AcDbArc
 50
90.0
 51
180.0
  0
LINE
  5
3E92
330
1A
100
AcDbEntity
  8
ZUWAKU
100
AcDbLine
 10
19.18824960416219
 20
11.28345278017412
 30
0.0
 11
18.65742978759328
 21
9.602523361039324
 31
0.0
  0
LINE
  5
3E93
330
1A
100
AcDbEntity
  8
ZUWAKU
100
AcDbLine
 10
22.79610654650429
 20
10.22499976425761
 30
0.0
 11
22.79610654650429
 21
9.31739875157994
 31
0.0
  0
LINE
  5
3E94
330
1A
100
AcDbEntity
  8
ZUWAKU
100
AcDbLine
 10
21.48360654650429
 20
11.62499976425761
 30
0.0
 11
20.60860654650429
 21
11.62499976425761
 31
0.0
  0
ARC
  5
3E95
330
1A
100
AcDbEntity
  8
ZUWAKU
100
AcDbCircle
 10
18.93793415456445
 20
11.3624997642576
 30
0.0
 40
0.2625
100
AcDbArc
 50
342.4744316262769
 51
90.0
  0
ARC
  5
3E96
330
1A
100
AcDbEntity
  8
ZUWAKU
100
AcDbCircle
 10
20.60860654650429
 20
11.3624997642576
 30
0.0
 40
0.2625
100
AcDbArc
 50
90.0
 51
180.0
  0
ARC
  5
3E97
330
1A
100
AcDbEntity
  8
ZUWAKU
100
AcDbCircle
 10
21.48360654650429
 20
11.3624997642576
 30
0.0
 40
0.2625
100
AcDbArc
 50
0.0
 51
90.0
  0
LINE
  5
3E98
330
1A
100
AcDbEntity
  8
ZUWAKU
100
AcDbLine
 10
24.19610654650432
 20
9.962499764257611
 30
0.0
 11
24.19610654650432
 21
9.31739875157994
 31
0.0
  0
ARC
  5
3E99
330
1A
100
AcDbEntity
  8
ZUWAKU
100
AcDbCircle
 10
24.45860654650431
 20
9.962499764257611
 30
0.0
 40
0.2625
100
AcDbArc
 50
90.0
 51
180.0
  0
LINE
  5
3E9A
330
1A
100
AcDbEntity
  8
ZUWAKU
100
AcDbLine
 10
24.19610654650432
 20
11.62499976425761
 30
0.0
 11
25.94610654650432
 21
11.62499976425761
 31
0.0
  0
TEXT
  5
3E9B
330
1A
100
AcDbEntity
  8
MOJI
100
AcDbText
 10
119.9136018095392
 20
9.002460292961302
 30
0.0
 40
2.799999999999999
  1
回転リング
 41
0.9
  7
ｽﾀｲﾙ1
100
AcDbText
  0
TEXT
  5
3E9C
330
1A
100
AcDbEntity
  8
MOJI
100
AcDbText
 10
46.47889526319829
 20
6.370588829394989
 30
0.0
 40
3.0
  1
アートフェイスＶＭ１２０
 41
0.9
  7
ｽﾀｲﾙ1
100
AcDbText
  0
LINE
  5
3E9D
330
1A
100
AcDbEntity
  8
ZUWAKU
100
AcDbLine
 10
28.92110654650429
 20
5.499999764257609
 30
0.0
 11
28.92110654650429
 21
11.3624997642576
 31
0.0
  0
LINE
  5
3E9E
330
1A
100
AcDbEntity
  8
ZUWAKU
100
AcDbLine
 10
27.52110654650431
 20
11.3624997642576
 30
0.0
 11
27.52110654650431
 21
4.97499976425761
 31
0.0
  0
LINE
  5
3E9F
330
1A
100
AcDbEntity
  8
ZUWAKU
100
AcDbLine
 10
33.12110654650428
 20
11.3624997642576
 30
0.0
 11
33.12110654650428
 21
3.837499764257611
 31
0.0
  0
LINE
  5
3EA0
330
1A
100
AcDbEntity
  8
ZUWAKU
100
AcDbLine
 10
34.52110654650431
 20
3.837499764257611
 30
0.0
 11
34.52110654650431
 21
11.3624997642576
 31
0.0
  0
LINE
  5
3EA1
330
1A
100
AcDbEntity
  8
ZUWAKU
100
AcDbLine
 10
30.67110654650429
 20
11.3624997642576
 30
0.0
 11
30.67110654650429
 21
5.499999764257609
 31
0.0
  0
LINE
  5
3EA2
330
1A
100
AcDbEntity
  8
ZUWAKU
100
AcDbLine
 10
32.07110654650432
 20
4.97499976425761
 30
0.0
 11
32.07110654650432
 21
11.3624997642576
 31
0.0
  0
LINE
  5
3EA3
330
1A
100
AcDbEntity
  8
ZUWAKU
100
AcDbLine
 10
39.56331524310792
 20
14.9999997642576
 30
0.0
 11
39.56331524310792
 21
0.3999997642576431
 31
0.0
  0
LINE
  5
3EA4
330
1A
100
AcDbEntity
  8
ZUWAKU
100
AcDbLine
 10
39.76331524310785
 20
14.9999997642576
 30
0.0
 11
39.76331524310797
 21
0.3999997642576431
 31
0.0
  0
LINE
  5
3EA5
330
1A
100
AcDbEntity
  8
ZUWAKU
100
AcDbLine
 10
39.66331524310783
 20
14.9999997642576
 30
0.0
 11
39.66331524310794
 21
0.3999997642576431
 31
0.0
  0
LINE
  5
3EA6
330
1A
100
AcDbEntity
  8
ZUWAKU
100
AcDbLine
 10
104.2233011141476
 20
14.9999997642576
 30
0.0
 11
104.2233011141477
 21
0.3999997642576431
 31
0.0
  0
LINE
  5
3EA7
330
1A
100
AcDbEntity
  8
ZUWAKU
100
AcDbLine
 10
104.3233011141476
 20
14.9999997642576
 30
0.0
 11
104.3233011141477
 21
0.3999997642576431
 31
0.0
  0
LINE
  5
3EA8
330
1A
100
AcDbEntity
  8
ZUWAKU
100
AcDbLine
 10
104.1233011141476
 20
14.9999997642576
 30
0.0
 11
104.1233011141476
 21
0.3999997642576431
 31
0.0
  0
ARC
  5
3EA9
330
1A
100
AcDbEntity
  8
ZUWAKU
100
AcDbCircle
 10
28.92110654650429
 20
4.97499976425761
 30
0.0
 40
1.399999999999999
100
AcDbArc
 50
180.0
 51
270.0
  0
ARC
  5
3EAA
330
1A
100
AcDbEntity
  8
ZUWAKU
100
AcDbCircle
 10
30.67110654650429
 20
4.97499976425761
 30
0.0
 40
1.399999999999999
100
AcDbArc
 50
270.0
 51
0.0
  0
LINE
  5
3EAB
330
1A
100
AcDbEntity
  8
ZUWAKU
100
AcDbLine
 10
33.38360654650432
 20
3.574999764257611
 30
0.0
 11
34.25860654650432
 21
3.574999764257611
 31
0.0
  0
ARC
  5
3EAC
330
1A
100
AcDbEntity
  8
ZUWAKU
100
AcDbCircle
 10
33.38360654650432
 20
3.837499764257611
 30
0.0
 40
0.2625
100
AcDbArc
 50
180.0
 51
270.0
  0
ARC
  5
3EAD
330
1A
100
AcDbEntity
  8
ZUWAKU
100
AcDbCircle
 10
34.25860654650432
 20
3.837499764257611
 30
0.0
 40
0.2625
100
AcDbArc
 50
270.0
 51
0.0
  0
ARC
  5
3EAE
330
1A
100
AcDbEntity
  8
ZUWAKU
100
AcDbCircle
 10
29.44610654650432
 20
5.499999764257609
 30
0.0
 40
0.525
100
AcDbArc
 50
180.0
 51
270.0
  0
LINE
  5
3EAF
330
1A
100
AcDbEntity
  8
ZUWAKU
100
AcDbLine
 10
28.92110654650429
 20
3.574999764257611
 30
0.0
 11
30.67110654650429
 21
3.574999764257611
 31
0.0
  0
ARC
  5
3EB0
330
1A
100
AcDbEntity
  8
ZUWAKU
100
AcDbCircle
 10
30.14610654650431
 20
5.499999764257609
 30
0.0
 40
0.525
100
AcDbArc
 50
270.0
 51
0.0
  0
LINE
  5
3EB1
330
1A
100
AcDbEntity
  8
ZUWAKU
100
AcDbLine
 10
30.14610654650431
 20
4.97499976425761
 30
0.0
 11
29.44610654650432
 21
4.97499976425761
 31
0.0
  0
TEXT
  5
3EB2
330
1A
100
AcDbEntity
  8
ZUWAKU
100
AcDbText
 10
104.8620236252524
 20
4.827678033450418
 30
0.0
 40
2.0
  1
サイズ
 41
0.9
  7
ｽﾀｲﾙ1
100
AcDbText
  0
LINE
  5
3EB3
330
1A
100
AcDbEntity
  8
ZUWAKU
100
AcDbLine
 10
34.25860654650432
 20
11.62499976425761
 30
0.0
 11
33.38360654650432
 21
11.62499976425761
 31
0.0
  0
ARC
  5
3EB4
330
1A
100
AcDbEntity
  8
ZUWAKU
100
AcDbCircle
 10
33.38360654650432
 20
11.3624997642576
 30
0.0
 40
0.2625
100
AcDbArc
 50
90.0
 51
180.0
  0
ARC
  5
3EB5
330
1A
100
AcDbEntity
  8
ZUWAKU
100
AcDbCircle
 10
34.25860654650432
 20
11.3624997642576
 30
0.0
 40
0.2625
100
AcDbArc
 50
0.0
 51
90.0
  0
LINE
  5
3EB6
330
1A
100
AcDbEntity
  8
ZUWAKU
100
AcDbLine
 10
28.6586065465043
 20
11.62499976425761
 30
0.0
 11
27.7836065465043
 21
11.62499976425761
 31
0.0
  0
ARC
  5
3EB7
330
1A
100
AcDbEntity
  8
ZUWAKU
100
AcDbCircle
 10
27.7836065465043
 20
11.3624997642576
 30
0.0
 40
0.2625
100
AcDbArc
 50
90.0
 51
180.0
  0
ARC
  5
3EB8
330
1A
100
AcDbEntity
  8
ZUWAKU
100
AcDbCircle
 10
28.6586065465043
 20
11.3624997642576
 30
0.0
 40
0.2625
100
AcDbArc
 50
0.0
 51
90.0
  0
ARC
  5
3EB9
330
1A
100
AcDbEntity
  8
ZUWAKU
100
AcDbCircle
 10
30.93360654650428
 20
11.3624997642576
 30
0.0
 40
0.2625
100
AcDbArc
 50
90.0
 51
180.0
  0
LINE
  5
3EBA
330
1A
100
AcDbEntity
  8
ZUWAKU
100
AcDbLine
 10
31.80860654650428
 20
11.62499976425761
 30
0.0
 11
30.93360654650428
 21
11.62499976425761
 31
0.0
  0
ARC
  5
3EBB
330
1A
100
AcDbEntity
  8
ZUWAKU
100
AcDbCircle
 10
31.80860654650428
 20
11.3624997642576
 30
0.0
 40
0.2625
100
AcDbArc
 50
0.0
 51
90.0
  0
TEXT
  5
3EBC
330
1A
100
AcDbEntity
  8
ZUWAKU
100
AcDbText
 10
104.8620236252523
 20
12.02767803345039
 30
0.0
 40
2.0
  1
品名
 41
0.9
  7
ｽﾀｲﾙ1
100
AcDbText
  0
TEXT
  5
3EBD
330
1A
100
AcDbEntity
  8
MOJI
100
AcDbText
 10
264.0204544552701
 20
9.002460292961302
 30
0.0
 40
2.799999999999999
  1
Ａ３
 41
0.9
  7
ｽﾀｲﾙ1
100
AcDbText
  0
LINE
  5
3EBE
330
1A
100
AcDbEntity
  8
ZUWAKU
100
AcDbLine
 10
252.4995902181841
 20
14.9999997642576
 30
0.0
 11
252.4995902181842
 21
0.3999997642576431
 31
0.0
  0
LINE
  5
3EBF
330
1A
100
AcDbEntity
  8
ZUWAKU
100
AcDbLine
 10
252.5995902181841
 20
14.9999997642576
 30
0.0
 11
252.5995902181843
 21
0.3999997642576431
 31
0.0
  0
LINE
  5
3EC0
330
1A
100
AcDbEntity
  8
ZUWAKU
100
AcDbLine
 10
252.3995902181842
 20
14.9999997642576
 30
0.0
 11
252.3995902181842
 21
0.3999997642576431
 31
0.0
  0
LINE
  5
3EC1
330
1A
100
AcDbEntity
  8
ZUWAKU
100
AcDbLine
 10
276.2634783521699
 20
14.9999997642576
 30
0.0
 11
276.2634783521699
 21
0.3999997642576431
 31
0.0
  0
LINE
  5
3EC2
330
1A
100
AcDbEntity
  8
ZUWAKU
100
AcDbLine
 10
276.4634783521699
 20
14.9999997642576
 30
0.0
 11
276.46347835217
 21
0.3999997642576431
 31
0.0
  0
LINE
  5
3EC3
330
1A
100
AcDbEntity
  8
ZUWAKU
100
AcDbLine
 10
276.3634783521698
 20
14.9999997642576
 30
0.0
 11
276.3634783521699
 21
0.3999997642576431
 31
0.0
  0
LINE
  5
3EC4
330
1A
100
AcDbEntity
  8
ZUWAKU
100
AcDbLine
 10
223.8121824546093
 20
14.9999997642576
 30
0.0
 11
223.8121824546094
 21
0.3999997642576431
 31
0.0
  0
LINE
  5
3EC5
330
1A
100
AcDbEntity
  8
ZUWAKU
100
AcDbLine
 10
223.9121824546093
 20
14.9999997642576
 30
0.0
 11
223.9121824546094
 21
0.3999997642576431
 31
0.0
  0
LINE
  5
3EC6
330
1A
100
AcDbEntity
  8
ZUWAKU
100
AcDbLine
 10
223.7121824546094
 20
14.9999997642576
 30
0.0
 11
223.7121824546094
 21
0.3999997642576431
 31
0.0
  0
TEXT
  5
3EC7
330
1A
100
AcDbEntity
  8
MOJI
100
AcDbText
 10
231.6232164646147
 20
5.971308625087601
 30
0.0
 40
2.799999999999999
  1
ＰＧ０３□
 41
0.9
  7
ｽﾀｲﾙ1
100
AcDbText
  0
LINE
  5
3EC8
330
1A
100
AcDbEntity
  8
ZUWAKU
100
AcDbLine
 10
252.5995902181841
 20
7.599999764257628
 30
0.0
 11
276.2634783521699
 21
7.599999764257628
 31
0.0
  0
LINE
  5
3EC9
330
1A
100
AcDbEntity
  8
ZUWAKU
100
AcDbLine
 10
252.5995902181841
 20
7.699999764257626
 30
0.0
 11
276.2634783521699
 21
7.699999764257626
 31
0.0
  0
LINE
  5
3ECA
330
1A
100
AcDbEntity
  8
ZUWAKU
100
AcDbLine
 10
252.5995902181841
 20
7.799999764257625
 30
0.0
 11
276.2634783521699
 21
7.799999764257625
 31
0.0
  0
TEXT
  5
3ECB
330
1A
100
AcDbEntity
  8
ZUWAKU
100
AcDbText
 10
253.3383127292891
 20
4.827678033450418
 30
0.0
 40
2.0
  1
縮尺
 41
0.9
  7
ｽﾀｲﾙ1
100
AcDbText
  0
TEXT
  5
3ECC
330
1A
100
AcDbEntity
  8
ZUWAKU
100
AcDbText
 10
230.7251803284665
 20
1.307035219827355
 30
0.0
 40
1.5
  1
□には色品番が入ります
 41
0.9
  7
ｽﾀｲﾙ1
100
AcDbText
  0
TEXT
  5
3ECD
330
1A
100
AcDbEntity
  8
MOJI
100
AcDbText
 10
264.0204544552701
 20
1.602460292961319
 30
0.0
 40
2.799999999999999
  1
１/１
 41
0.9
  7
ｽﾀｲﾙ1
100
AcDbText
  0
TEXT
  5
3ECE
330
1A
100
AcDbEntity
  8
ZUWAKU
100
AcDbText
 10
224.6509049657141
 20
12.02767803345039
 30
0.0
 40
2.0
  1
品番
 41
0.9
  7
ｽﾀｲﾙ1
100
AcDbText
  0
TEXT
  5
3ECF
330
1A
100
AcDbEntity
  8
ZUWAKU
100
AcDbText
 10
253.3383127292889
 20
12.02767803345039
 30
0.0
 40
2.0
  1
用紙
 41
0.9
  7
ｽﾀｲﾙ1
100
AcDbText
  0
TEXT
  5
3ED0
330
1A
100
AcDbEntity
  8
ZUWAKU
100
AcDbText
 10
354.2640425652356
 20
8.77691943210101
 30
0.0
 40
3.0
  1
積水化学工業株式会社
 41
0.9
  7
ｽﾀｲﾙ1
100
AcDbText
  0
TEXT
  5
3ED1
330
1A
100
AcDbEntity
  8
ZUWAKU
100
AcDbText
 10
329.1019693127649
 20
9.002460292961302
 30
0.0
 40
2.799999999999999
  1
　　．　　．　　
 41
0.9
  7
ｽﾀｲﾙ1
100
AcDbText
  0
LINE
  5
3ED2
330
1A
100
AcDbEntity
  8
ZUWAKU
100
AcDbLine
 10
348.9245057433843
 20
14.9999997642576
 30
0.0
 11
348.9245057433844
 21
0.3999997642576431
 31
0.0
  0
LINE
  5
3ED3
330
1A
100
AcDbEntity
  8
ZUWAKU
100
AcDbLine
 10
348.8245057433843
 20
14.9999997642576
 30
0.0
 11
348.8245057433843
 21
0.3999997642576431
 31
0.0
  0
LINE
  5
3ED4
330
1A
100
AcDbEntity
  8
ZUWAKU
100
AcDbLine
 10
348.7245057433844
 20
14.9999997642576
 30
0.0
 11
348.7245057433844
 21
0.3999997642576431
 31
0.0
  0
LINE
  5
3ED5
330
1A
100
AcDbEntity
  8
ZUWAKU
100
AcDbLine
 10
348.6245057433843
 20
14.9999997642576
 30
0.0
 11
348.6245057433843
 21
0.3999997642576431
 31
0.0
  0
LINE
  5
3ED6
330
1A
100
AcDbEntity
  8
ZUWAKU
100
AcDbLine
 10
324.208601724216
 20
14.9999997642576
 30
0.0
 11
324.208601724216
 21
0.3999997642576431
 31
0.0
  0
LINE
  5
3ED7
330
1A
100
AcDbEntity
  8
ZUWAKU
100
AcDbLine
 10
324.4086017242159
 20
14.9999997642576
 30
0.0
 11
324.408601724216
 21
0.3999997642576431
 31
0.0
  0
LINE
  5
3ED8
330
1A
100
AcDbEntity
  8
ZUWAKU
100
AcDbLine
 10
324.3086017242159
 20
14.9999997642576
 30
0.0
 11
324.308601724216
 21
0.3999997642576431
 31
0.0
  0
TEXT
  5
3ED9
330
1A
100
AcDbEntity
  8
ZUWAKU
100
AcDbText
 10
354.2640425652356
 20
3.324419921184642
 30
0.0
 40
3.0
  1
建材事業部
 41
0.9
  7
ｽﾀｲﾙ1
100
AcDbText
  0
LINE
  5
3EDA
330
1A
100
AcDbEntity
  8
ZUWAKU
100
AcDbLine
 10
324.4086017242158
 20
7.599999764257624
 30
0.0
 11
348.6245057433843
 21
7.599999764257626
 31
0.0
  0
LINE
  5
3EDB
330
1A
100
AcDbEntity
  8
ZUWAKU
100
AcDbLine
 10
324.4086017242159
 20
7.699999764257627
 30
0.0
 11
348.6245057433843
 21
7.699999764257626
 31
0.0
  0
LINE
  5
3EDC
330
1A
100
AcDbEntity
  8
ZUWAKU
100
AcDbLine
 10
324.4086017242158
 20
7.799999764257625
 30
0.0
 11
348.6245057433843
 21
7.799999764257625
 31
0.0
  0
TEXT
  5
3EDD
330
1A
100
AcDbEntity
  8
ZUWAKU
100
AcDbText
 10
325.1473242353207
 20
12.02767803345039
 30
0.0
 40
2.0
  1
DATE
 41
0.9
  7
ｽﾀｲﾙ1
100
AcDbText
  0
VIEWPORT
  5
22
330
17
100
AcDbEntity
 67
     1
  8
0
100
AcDbViewport
 10
313.6808219178082
 20
148.5
 30
0.0
 40
627.3616438356165
 41
297.0
 68
     2
 69
     1
1001
ACAD
1000
MVIEW
1002
{
1070
    16
1010
0.0
1020
0.0
1030
0.0
1010
0.0
1020
0.0
1030
1.0
1040
0.0
1040
297.0
1040
313.6808219178082
1040
148.5
1040
50.0
1040
0.0
1040
0.0
1070
     0
1070
   100
1070
     1
1070
     0
1070
     0
1070
     0
1070
     0
1070
     0
1040
0.0
1040
0.0
1040
0.0
1040
1.0
1040
1.0
1040
10.0
1040
10.0
1070
     0
1002
{
1002
}
1002
}
  0
VIEWPORT
  5
64
330
17
100
AcDbEntity
 67
     1
  8
VIEWPORT
100
AcDbViewport
 10
210.0
 20
148.5
 30
0.0
 40
420.0
 41
297.0
 68
     1
 69
     2
1001
ACAD
1000
MVIEW
1002
{
1070
    16
1010
0.0
1020
0.0
1030
0.0
1010
0.0
1020
0.0
1030
1.0
1040
0.0
1040
605.8799999999997
1040
420.0
1040
297.0
1040
50.0
1040
0.0
1040
0.0
1070
     0
1070
   100
1070
     1
1070
     0
1070
     0
1070
     0
1070
     0
1070
     0
1040
0.0
1040
0.0
1040
0.0
1040
10.0
1040
10.0
1040
0.0
1040
0.0
1070
     0
1002
{
1002
}
1002
}
  0
ENDSEC
  0
SECTION
  2
OBJECTS
  0
DICTIONARY
  5
C
330
0
100
AcDbDictionary
  3
ACAD_GROUP
350
D
  3
ACAD_LAYOUT
350
8D1
  3
ACAD_MLINESTYLE
350
E
  3
ACAD_PLOTSETTINGS
350
8D2
  3
ACAD_PLOTSTYLENAME
350
8CF
  3
ACDBVARIABLEDICTIONARY
350
2D45
  3
ACDBHEADERROUNDTRIPXREC
350
3EED
  0
DICTIONARY
  5
AD2
330
1A
100
AcDbDictionary
280
     1
  3
ACAD_LAYOUTSELFREF
360
3F0F
  0
DICTIONARY
  5
AD0
330
17
100
AcDbDictionary
280
     1
  3
ACAD_LAYOUTSELFREF
360
3F0E
  0
DICTIONARY
  5
D
102
{ACAD_REACTORS
330
C
102
}
330
C
100
AcDbDictionary
  3
*A1
350
1AA0
  3
*A2
350
1AB7
  3
*A3
350
1B67
  3
*A4
350
1EA4
  3
*A5
350
1EA5
  0
DICTIONARY
  5
8D1
102
{ACAD_REACTORS
330
C
102
}
330
C
100
AcDbDictionary
  0
DICTIONARY
  5
E
102
{ACAD_REACTORS
330
C
102
}
330
C
100
AcDbDictionary
  3
STANDARD
350
13
  0
DICTIONARY
  5
8D2
102
{ACAD_REACTORS
330
C
102
}
330
C
100
AcDbDictionary
  0
ACDBDICTIONARYWDFLT
  5
8CF
102
{ACAD_REACTORS
330
C
102
}
330
C
100
AcDbDictionary
281
     1
  3
Normal
350
8D0
100
AcDbDictionaryWithDefault
340
8D0
1001
ACAD
1000
TREAT_AS_HARD
1070
     0
1000
TREAT_AS_HARD
1070
     0
1000
TREAT_AS_HARD
1070
     0
1000
TREAT_AS_HARD
1070
     0
1000
TREAT_AS_HARD
1070
     0
1000
TREAT_AS_HARD
1070
     0
1000
TREAT_AS_HARD
1070
     0
1000
TREAT_AS_HARD
1070
     0
1000
TREAT_AS_HARD
1070
     0
1000
TREAT_AS_HARD
1070
     0
1000
TREAT_AS_HARD
1070
     0
1000
TREAT_AS_HARD
1070
     0
1000
TREAT_AS_HARD
1070
     0
1000
TREAT_AS_HARD
1070
     0
1000
TREAT_AS_HARD
1070
     0
1000
TREAT_AS_HARD
1070
     0
  0
DICTIONARY
  5
2D45
102
{ACAD_REACTORS
330
C
102
}
330
C
100
AcDbDictionary
  3
SORTENTS
350
2D46
  0
DICTIONARY
  5
3EED
102
{ACAD_REACTORS
330
C
102
}
330
C
100
AcDbDictionary
  3
TSTACKALIGN
350
3EEE
  3
TSTACKSIZE
350
3EEF
  3
HYPERLINKBASE
350
3EF0
  3
STYLESHEET
350
3EF1
  3
LAYOUTDICT
350
3EF2
  3
PLOTSETDICT
350
3EF3
  3
PLOTSTYLNAMDICT
350
3EF4
  3
LWETCUNION
350
3EF5
  3
INSUNITS
350
3EF6
  3
CEPSNTYPE
350
3EF7
  3
FINGERPRINTGUID
350
3EF8
  3
VERSIONGUID
350
3EF9
  3
PSVPSCALE
350
3EFA
  3
DIMSTYLEDATA
350
3EFB
  3
PUCSORTHOREF
350
3EFC
  3
PUCSORTHOVIEW
350
3EFD
  3
PUCSBASE
350
3EFE
  3
PUCSORGTOP
350
3EFF
  3
PUCSORGBOTTOM
350
3F00
  3
PUCSORGLEFT
350
3F01
  3
PUCSORGRIGHT
350
3F02
  3
PUCSORGFRONT
350
3F03
  3
PUCSORGBACK
350
3F04
  3
UCSORTHOREF
350
3F05
  3
UCSORTHOVIEW
350
3F06
  3
UCSBASE
350
3F07
  3
UCSORGTOP
350
3F08
  3
UCSORGBOTTOM
350
3F09
  3
UCSORGLEFT
350
3F0A
  3
UCSORGRIGHT
350
3F0B
  3
UCSORGFRONT
350
3F0C
  3
UCSORGBACK
350
3F0D
  0
XRECORD
  5
3F0F
102
{ACAD_REACTORS
330
AD2
102
}
330
AD2
100
AcDbXrecord
340
1A
  0
XRECORD
  5
3F0E
102
{ACAD_REACTORS
330
AD0
102
}
330
AD0
100
AcDbXrecord
340
17
  0
GROUP
  5
1AA0
102
{ACAD_REACTORS
330
D
102
}
330
D
100
AcDbGroup
300

 70
     1
 71
     1
  0
GROUP
  5
1AB7
102
{ACAD_REACTORS
330
D
102
}
330
D
100
AcDbGroup
300

 70
     1
 71
     1
  0
GROUP
  5
1B67
102
{ACAD_REACTORS
330
D
102
}
330
D
100
AcDbGroup
300

 70
     1
 71
     1
  0
GROUP
  5
1EA4
102
{ACAD_REACTORS
330
D
102
}
330
D
100
AcDbGroup
300

 70
     1
 71
     1
  0
GROUP
  5
1EA5
102
{ACAD_REACTORS
330
D
102
}
330
D
100
AcDbGroup
300

 70
     1
 71
     1
  0
MLINESTYLE
  5
13
102
{ACAD_REACTORS
330
E
102
}
330
E
100
AcDbMlineStyle
  2
STANDARD
 70
     0
  3

 62
     0
 51
90.0
 52
90.0
 71
     2
 49
0.5
 62
   256
  6
BYLAYER
 49
-0.5
 62
   256
  6
BYLAYER
  0
ACDBPLACEHOLDER
  5
8D0
102
{ACAD_REACTORS
330
8CF
102
}
330
8CF
100
AcDbPlaceHolder
280
     0
  0
DICTIONARYVAR
  5
2D46
102
{ACAD_REACTORS
330
2D45
102
}
330
2D45
100
DictionaryVariables
280
     0
  1
96
  0
XRECORD
  5
3EEE
102
{ACAD_REACTORS
330
3EED
102
}
330
3EED
100
AcDbXrecord
 90
        1
  0
XRECORD
  5
3EEF
102
{ACAD_REACTORS
330
3EED
102
}
330
3EED
100
AcDbXrecord
 90
       70
  0
XRECORD
  5
3EF0
102
{ACAD_REACTORS
330
3EED
102
}
330
3EED
100
AcDbXrecord
  1

  0
XRECORD
  5
3EF1
102
{ACAD_REACTORS
330
3EED
102
}
330
3EED
100
AcDbXrecord
  1
systemprinter.ctb
  0
XRECORD
  5
3EF2
102
{ACAD_REACTORS
330
3EED
102
}
330
3EED
100
AcDbXrecord
340
8D1
  0
XRECORD
  5
3EF3
102
{ACAD_REACTORS
330
3EED
102
}
330
3EED
100
AcDbXrecord
340
8D2
  0
XRECORD
  5
3EF4
102
{ACAD_REACTORS
330
3EED
102
}
330
3EED
100
AcDbXrecord
340
8CF
  0
XRECORD
  5
3EF5
102
{ACAD_REACTORS
330
3EED
102
}
330
3EED
100
AcDbXrecord
 90
    10781
  0
XRECORD
  5
3EF6
102
{ACAD_REACTORS
330
3EED
102
}
330
3EED
100
AcDbXrecord
 90
        0
  0
XRECORD
  5
3EF7
102
{ACAD_REACTORS
330
3EED
102
}
330
3EED
100
AcDbXrecord
 90
        0
  0
XRECORD
  5
3EF8
102
{ACAD_REACTORS
330
3EED
102
}
330
3EED
100
AcDbXrecord
  1
{E7660B84-245B-4EEF-A5D2-EED1934F6951}
  0
XRECORD
  5
3EF9
102
{ACAD_REACTORS
330
3EED
102
}
330
3EED
100
AcDbXrecord
  1
{869F3D4D-D3EA-446B-879D-DE79144E4CB4}
  0
XRECORD
  5
3EFA
102
{ACAD_REACTORS
330
3EED
102
}
330
3EED
100
AcDbXrecord
 40
0.0
  0
XRECORD
  5
3EFB
102
{ACAD_REACTORS
330
3EED
102
}
330
3EED
100
AcDbXrecord
1000
DSTYLE
1002
{
1070
   341
340
6D
1070
   343
340
6D
1070
   344
340
6D
1070
   371
 70
    -1
1070
   372
 70
    -1
1002
}
  0
XRECORD
  5
3EFC
102
{ACAD_REACTORS
330
3EED
102
}
330
3EED
100
AcDbXrecord
340
0
  0
XRECORD
  5
3EFD
102
{ACAD_REACTORS
330
3EED
102
}
330
3EED
100
AcDbXrecord
 70
     0
  0
XRECORD
  5
3EFE
102
{ACAD_REACTORS
330
3EED
102
}
330
3EED
100
AcDbXrecord
340
0
  0
XRECORD
  5
3EFF
102
{ACAD_REACTORS
330
3EED
102
}
330
3EED
100
AcDbXrecord
 10
0.0
 20
0.0
 30
0.0
  0
XRECORD
  5
3F00
102
{ACAD_REACTORS
330
3EED
102
}
330
3EED
100
AcDbXrecord
 10
0.0
 20
0.0
 30
0.0
  0
XRECORD
  5
3F01
102
{ACAD_REACTORS
330
3EED
102
}
330
3EED
100
AcDbXrecord
 10
0.0
 20
0.0
 30
0.0
  0
XRECORD
  5
3F02
102
{ACAD_REACTORS
330
3EED
102
}
330
3EED
100
AcDbXrecord
 10
0.0
 20
0.0
 30
0.0
  0
XRECORD
  5
3F03
102
{ACAD_REACTORS
330
3EED
102
}
330
3EED
100
AcDbXrecord
 10
0.0
 20
0.0
 30
0.0
  0
XRECORD
  5
3F04
102
{ACAD_REACTORS
330
3EED
102
}
330
3EED
100
AcDbXrecord
 10
0.0
 20
0.0
 30
0.0
  0
XRECORD
  5
3F05
102
{ACAD_REACTORS
330
3EED
102
}
330
3EED
100
AcDbXrecord
340
0
  0
XRECORD
  5
3F06
102
{ACAD_REACTORS
330
3EED
102
}
330
3EED
100
AcDbXrecord
 70
     0
  0
XRECORD
  5
3F07
102
{ACAD_REACTORS
330
3EED
102
}
330
3EED
100
AcDbXrecord
340
0
  0
XRECORD
  5
3F08
102
{ACAD_REACTORS
330
3EED
102
}
330
3EED
100
AcDbXrecord
 10
0.0
 20
0.0
 30
0.0
  0
XRECORD
  5
3F09
102
{ACAD_REACTORS
330
3EED
102
}
330
3EED
100
AcDbXrecord
 10
0.0
 20
0.0
 30
0.0
  0
XRECORD
  5
3F0A
102
{ACAD_REACTORS
330
3EED
102
}
330
3EED
100
AcDbXrecord
 10
0.0
 20
0.0
 30
0.0
  0
XRECORD
  5
3F0B
102
{ACAD_REACTORS
330
3EED
102
}
330
3EED
100
AcDbXrecord
 10
0.0
 20
0.0
 30
0.0
  0
XRECORD
  5
3F0C
102
{ACAD_REACTORS
330
3EED
102
}
330
3EED
100
AcDbXrecord
 10
0.0
 20
0.0
 30
0.0
  0
XRECORD
  5
3F0D
102
{ACAD_REACTORS
330
3EED
102
}
330
3EED
100
AcDbXrecord
 10
0.0
 20
0.0
 30
0.0
  0
ENDSEC
  0
EOF
